Bijelo Dugme - Sve Cu Da Dam

Transkripcija: Sandro


Riff 1
|-------------------------|-------------------------|
|-------------------------|-------------------------|
|-------------------------|-------------------------|
|-------------------------|-------------------------|
|--7-7-7-7-7-7-7-7--10-12-|-7-7-7-7-7-7-7-7--12--10-|
|--5-5-5-5-5-5-5-5--8--10-|-5-5-5-5-5-5-5-5--10--8--|

|---------------------------------------------|
|---------------------------------------------|
|---------------------------------------------|
|---------------------------------------------|
|--7--7--7--7--7--7--7-7-7-7-7--5-5-5-5-5--*--|
|--5--5--5--5--5--5--5-5-5-5-5--3-3-3-3-3--*--|
(zvjezdica znaci prelazenje preko zice ostrim dijelom trzalice)

Riff 3
|----------------|
|----------------|
|----------------|
|----------------|
|--10-9----10-9--|
|--8--7----8--7--|

Riff 4
|----------|-----------------------------------|   |-----|
|----------|-----------------------------------|   |-----|
|----------|-----------------------------------| x |-----|
|----------|-----------------------------------| 3 |-----|
|--2--4--5-|-7--7--7--7--7--12-12-12-12-12-12--|   |--2--|
|--0--2--3-|-5--5--5--5--5--10-10-10-10-10-10--|   |--0--|

Riff 5
|--------------|
|--------------|
|--------------|
|--------------|
|--7-7-7-7--10-|
|--5-5-5-5--8--|

Tekst:

Riff 1
Sviraj 
Jedna zena zna
Zasto nemam sna igram sam
Dacu zadnji gros
Samo da igram jos

Riff 1
Sviraj
Krv mi nocas vri
Vinom bojim svijet gorim san
Dacu zadnji gros
Samo da igram jos
 
Riff 3
Sviraj cijelu noc
Sviraj cijelu noc

Riff 4 
Kucu da ti dam
Dusu da ti dam
Konja da prodam
Sve cu da ti dam samo da zaigram

Riff 5
Hej Hej
Hej Hej
Hej Hej
Hej Hej

(Sada se tokom solaze na klavijaturama svira riff 1 ali sa drugim tonovima)
Riff 1 (za kvartu vise) x2
Riff 1 (normalno)       x1
Riff 1 (za kvartu vise) x1
Riff 1 (samo pola riffa za kvartu vise - DFG) x4
Riff 1 (normalno)       x4

(Prve dvije strofe se ponove ovdje)
Refren x2

Riff 5
Hej Hej x4
Riff 1 x4

Refren x2

***VERZIJA 2***
Transkripcija: Nebojsa Stojanovic (kebi@ptt.yu)
Home         : http://www.maris.co.yu

	Kad bi bio bijelo dugme  1974. - A2

        A     CDA             DC
	Sviraj  jedna zena zna
        A 
	Zasto nemam sna
 
	Igram sam
        G
	dacu zadnji gros 
                      A  CD A DC 
	Samo da igram jos

	Sviraj krv mi nocas vri
	Vinom bojim svijet
	Gorim sav
	Dacu zadnji gros 
	Samo da igram jos
        C             H
	Sviraj cijelu noc
        C             H
	Sviraj cijelu noc

    EF#GA             D       
	Kucu da ti dam
        A             D
	Dusu da ti dam
        A              D
	Konja da prodam
        E          
	Sve cu da ti dam samo da zaigram