Bijelo Dugme - Te Noci Kad Umrem, Kad Odem, Kad Me Ne Bude

Transkripcija: p_aleksandar@yahoo.com


Intro
E||-----------------------------------------------------------------------||
B||-----1--3--4--3--------------------------1/4\-3------4/-6--3h4p3-------||
G||--0--------------5--3--3--------------------------------------------5\-||
D||-----------------------------6--6\-------------------------------------||
A||-----------------------------------------------------------------------||
E||-----------------------------------------------------------------------||

||-------------------------------------------------||
||-------------------------------------------------||
||------5--8--5----3/5-------3---------------------||
||-6-8--------------------------5--3--3b-----------||
||---------------------------------------6--3------||
||-------------------------------------------------||


Fill 1
   G#                              G7       Cm
||-------------------------------------------------||
||-------------------------------------------------||
||------5--8--5----3/5-------3---------------------||
||-6-8--------------------------5--3--3b-----------||
||---------------------------------------6--3------||
||-------------------------------------------------||


Cm                    G#
Te noci kad me stignu potjere
Cm         G#
kurve sudbine
Cm               G#
i kada udjem iza ovoga
Cm           G#
kao kod rodbine
G#  B    Cm B G#
kao zvijezda
B     Cm
padalica
         B      Cm    B G#
k'o neki lijepi kaput
   G7    G#                 Fill 1
sa dva lica.

Te noci zebsces na svom prozoru
umornih ociju
tesko je cekati na vozove
koji tumaraju
to je tesko
a lako je
zivjeti i umrijeti
G      Cm
pile moje

Cm
te noci
      B D#  B D#
te noci kad umrem
     F           B  F B
kada odem kad me ne bude
D# B D#
samo ce
      F          B  F B     (b-b-a)
dvije zene da se probude
         Gm   D#
jedna je moja mati
       F    B               (b-b-a)
ona ce plakati
         Gm  Cm
druga si ti, ti
D#        F  B
ti ces me kleti


Solo
                        Cm G# Cm
E||---------------------------/11----10--11--13----10----8---||
B||-----------8----------------------------------------------||
G||--------8-----10--8---------------------------------------||
D||--8/10---------------10\----------------------------------||
A||----------------------------------------------------------||
E||----------------------------------------------------------||
                              G#         Cm                  G#
||---------------------------------------11--10--11--13--10--20--||
||---11--9--8----6/8\6-4/6\4-------------------------------------||
||---------------------------5/8\5\-3\---------------------------||
||---------------------------------------------------------------||
||---------------------------------------------------------------||
||---------------------------------------------------------------||

b   - bend
h   - hammer on
p   - pull off
/ \ - slide

***VERZIJA 2***
Transkripcija: KafanskiSvirac - jamaldx@hotmail.com
Napomena     : Pesma je u originalnom tonalitetu.


Uvod:
e|----------------------|--------------------|
b|----------------------|---------6----------|
g|--5-7-8-7-5-----------|-7h8-7s8---7b8----5-|
d|-5----------8--8------|--------------------|
a|------------------8-8-|--------------------|
e|----------------------|--------------------|

e|-------------------------------------------|
b|-------------------------------------------|
g|--5-7-8-5--------3s5-3---------------------|
d|-5--------------------5---3-3s5------------|
a|--------------------------------6---3------|
e|-------------------------------------------|

Cm                    G# 
Te noci kad me stignu potjere
Cm         G# 
Kurve sudbine
Cm               G# 
I kada udjem iza ovoga
Cm           G# 
Kao kod rodbine
G#       Cm  G#    Cm
Kao zvijezda padalica
Cm                G#           Cm
K'o neki lijepi kaput sa dva lica

  G# 
g|--5-7-8-5--------3s5-3---------------------|
d|-5--------------------5---3-3s5------------|
a|--------------------------------6---3------|

Te noci zebst ces na tvom prozoru
Umornih ociju
Tesko je cekati na vozove
Koji tumaraju
G#    Cm      G#            Cm
To je tesko aaaa, a lako je
Cm              G# 
Zivjeti i umrijeti

           Cm       Cm
Pile moje, te noci, te noci
   D#  B D#       F*
   Kad umrem kada odem
          B  F B
   Kad me ne bude
   D#  B D#       F*      F* - visoki F na 8 pragu "a" zice
   Samo  ce dvije zene
         B   F B
   Da se probude
   
            Gm   D#            F    B
   Jedna je moja mati ona ce plakati
            Gm      D#          F   B
   Druga si ti, ti, ti ces me kleti

Solo:
e|-----------------------11-10-11-11s13--10-8-----|
b|----4-6^-4--------------------------------------|
g|-3s5-------3-3r---------------------------------|
d|------------------------------------------------|
a|------------------------------------------------|
e|------------------------------------------------|

e|------------------------------------------------|
b|-11-9-8--6h8-6-----4h6-4-----2h3-2--1-----------|
g|---------------8---------7----------------------|
d|------------------------------------------------|
a|------------------------------------------------|
e|------------------------------------------------|

e|--11-10-11-13------------20---------------------|
b|------------------------------------------------|
g|------------------------------------------------|
d|------------------------------------------------|
a|------------------------------------------------|
e|------------------------------------------------|

Te noci zebst ces na tvom prozoru
Umornih ociju
Tesko je cekati vozove
Koji tumaraju
To je tesko a, a lako je
Zivjeti i umrijeti
Pile moje, te noci
Te noci kad umrem....

***VERZIJA 3***
Transkripcija: Nebojsa Stojanovic (kebi@ptt.yu)
Home         : http://www.maris.co.yu

	Pljuni i zapjevaj moja Jugoslavijo  1986. - A4


        Hm                    G       Hm         G
	Te noci kad me stignu potjere kurve sudbine
        Hm               G      Hm           G
	I kada udjem iza ovoga  kao kod rodbine
        G   A     HmAG   A     Hm      G   A  Hm   AG   F#m7  Hm
	Kao zvijezda padalica, ko neki lijepi kaput  sa dva lica

	Te noci zepsces na tvom prozoru umornih ociju
	Tesko je cekati na vozove koji tumaraju
	To je tesko, a lako je zivjeti i umrijeti pile moje

        Hm
	Te noci
                D   A D         E            A  E A
	Te noci kad umrem, kada odem, kad me ne bude
        D A  D        E          A  E A
	Samo ce dvije zene da se probude
                 F#m  D            E    A
	Jedna je moja mati, ona ce plakati
                 F#m     D         E  F#m
	Druga si ti, ti, ti ces me kleti
          D         E  A
	A ti ces me kleti