Bijelo Dugme - Za Esmu

Transkripcija: Nebojsa Stojanovic (kebi@ptt.yu)
Home         : http://www.maris.co.yu

	Bijelo Dugme  1984. - A4

	Ne racunaj na me, ne racunaj na mene
        Am
	Danas je kisilo i sutra ce kaze radio

	Lose vrijeme za nas rajske ptice
        Dm
	Malo slatkog secera za vene
       
	Gadno stoje stvari moje luce
        Am
	Ne racunaj na mene, ne racunaj na mene

	Esma  i ja, dva oznojena andela
	Osamdeset cetvrta se vuce
	O moj boze kakvo grozno vrijeme
	Gadno stoje stvari moje luce
	Ne racunaj na mene, ne racunaj na mene

             G                     C (CBC)   
	Ipak lijepo je bilo te godine
        F                  C  (CBC)
	Kise su stale zbog nje
        F                  C  (CBC)
	Lale su cvale zbog nje
        F                  G
	Ruze mirisale zbog nje
             FGAm
	Zbog Esme

***VERZIJA 2***
Transkripcija: ???


uvod:

ponavljati ovaj riff
-----------
-----------
-----------
-----------
-----------
--5x-5x----

Ne racunaj na me, ne racunaj na mene

-----------------------------------
-----------------------------------
-----------------------------------
-----------------------------------
-----------------------------------
--12\------------------------------

riff:
-----------------------5~-----------------------------
------------------------------------------------------
-2x-4x-5x-2x-4x-2x--------4x-5x-2x-4x-2x--------------
------------------------------------------------------
-----------------------------------------0--2-3-0-2-0-
------------------------------------------------------

Am
Danas je kisilo i sutra ce, kaze radio

Lose vrijeme za nas rajske ptice
Dm             F
Malo slatkog secera za vene
Am
Gadno stoje stvari moje luce

Ne racunaj na mene, ne racunaj na mene

riff

Esma i ja, dva oznojena andjela
Osamdesetcetvrta se vuce
O, moj boze, kakvo grozno vrijeme
Gadno stoje stvari moje luce
Ne racunaj na mene, ne racunaj na mene

       G                 C
Ipak, lijepo je bilo te godine
fill:
----------
----------
----------
----------
--3~-1-3--
----------
F		    C	fill
Kise su stale zbog nje
F  		    C   fill
Lale su cvale zbog nje
F                   G        F Am
Ruze mirisale zbog nje, zbog Esme


--------------------------------------5-8-5h8---8-3h5------8-5h8----------
---------------------8b10r8b8rbrbr------------8----------8-------8b10r8brb
-3b5rb5rbrbr--------------------------------------------------------------
--------------7r5b7-------------------------------------------------------
--------------------------------------------------------------------------
--------------------------------------------------------------------------

(slide)
-17\14--14/17----------------------
-17\14--14/17----------------------
-----------------------------------
-----------------------------------
-----------------------------------
-----------------------------------

Danas je kisilo i sutra se, kaze radio
Osamdesetcetvrta se vuce
O, moj boze, kakvo grozno vrijeme
Gadno stoje stvari moje luce
Ne racunaj na mene, ne racunaj na mene

Ipak, lijepo je bilo te godine
Kise su stale zbog nje
Lale su cvale zbog nje
Ruze mirisale zbog nje, zbog Esme
Zbog nje, Esme, zbog nje, Esme

------------------|--------------------------
------------------|--------------8/10--10\---
-3b5-3b5-3b5-3b5~-|-5-3h5-2p0----------------
------------------|-----------2--------------
------------------|--------------------------
------------------|--------------------------

Zbog nje, Esme, zbog nje, Esme

--5h8p5h8p5p0----------------------
-----------------------------------
-----------------------------------
-----------------------------------
-----------------------------------
-----------------------------------

eto.mozda malo zvuci kao narodnjak....sta znam