Bijelo Dugme - Zaboravi Ako Mozes

Transkripcija: Igor Besermenji (besermenji@yahoo.com)
Home         : http://2akordi.net

Cm                  D#                  Cm
Gde da krenes u ovo strasno doba nemas gde
Cm                  D#               Cm
Sama u tom haljetku cirkuske jahacice
Cm G7          Cm          G7         Cm
Mi_lion rubalja za tvoja glatka ramena
B                         G#
Daj makar ne varaj svog andjela na dlanu
   Cm   D# Fm G7         Cm
I  zabo_ra_vi ako mozes ti

Otmeno izgubljena opklada to ti je
Kao spremljen krevet malo tesan za dvoje
Kao haljina kada se rasiva
Hajde porodi me kao srna na snegu
I zaboravi ako mozes ti

U drugoj strofi je isti raspored akorada kao I u prvoj.
Akordi iznad reci "ako mozes ti" se sviraju ustopano.
Prijatna vam svirka.


***VERZIJA 2***
Transkripcija:Sale (goma@pop.transit.ru)
Home         :http://yurope.com/people/sen/The.Book.Of.Home/akordi


Cm Fm6 Cm Fm6 Cm Fm6 Cm Fm6 Cm Fm7 Bb   Cm

Cm                   Eb      Ebmaj9      Cm
Gdje da krenes u ovo strasno doba, nemas gdje,
Cm                  Eb      Ebmaj9 Cm
Sama u tom haljetku cirkuske jahacice.
  G7         Cm          G7         Cm
Milijun rubalja za tvoja glatka ramena,
           Bb             Ab
Daj, makar ne varaj ovog andjela na dlanu,
 Cm Eb Fm            Cm Fm6 Cm7
Zaboravi, ako mozes.
 Fm6   Cm  Fm6 Cm
Zaboravi,
  Fm6  Cm  Bb
Zaboravi
           Cm
Ako mozes.

Cm                  Eb      Ebmaj9 Cm
Otmijeno izgubljena opklada to ti je.
Cm                   Eb   Ebmaj9        C
Kao spremljen krevet malo tijesan za dvoje,
G7       Cm G7          Cm
Kao haljina kada se rasiva,
      Bb          Ab
Evo porodi me kao srna na snijegu,
    Cm Bb Fm          Cm7 Fm6 Cm Fm6 Cm7
I zaboravi ako mozes.
  Fm6 Cm   Fm6 Cm7
Zaboravi,
  Fm6  Cm  Bb
Zaboravi,
            Cm
Ako mozes.

Cm                   Eb      Ebmaj9      Cm
Gdje da krenes u ovo strasno doba, nemas gdje.
                  Eb   Ebmaj9          Cm
Tebi svaki krevet ovog svijeta tijesan je.
        G7        Cm
Idi pod laznim imenom,
      G7         Cm
Idi i putuj sjeverom,
       Bb         Ab
Ili porodi me kao srna na snijegu
   Cm Eb Fm
I zaboravi.


***VERZIJA 3***
Prepis za koncertnu verziju pesme

Cm                    D#        B
Gdje da krenes u ovo strasno doba,
        Cm
nemas gdje.
Cm                   D#   B          C
Sama, u tom haljetku cirkuske jahacice.
  Gm       Cm
Milion rubalja
         Gm          Cm
za tvoja glatka ramena
          B
daj makar ne varaj
     G#
ovog andjela na dlanu
  C#D#F#
zaboravi, ako mozes,
  C#D#F#      Cm  B
zaboravi, ako mozes ti.


Otmjeno izgubljena opklada, to ti je
Kao spremljen krevet malo tijesan za dvoje
kao haljina
kad se rasiva
'ajde(evo) porodi me, kao srna na snijegu
i zaboravi, akno mozes ti.

Gdje da krenes u ovo strasno doba, nemas gdje
tebi svaki krevet ovog svijeta tijesan je
idi pod laznim imenom, idi putuj sjeverom
i porodi me, kao srna na snijegu
i zaboravi, ako mozes ti.


***VERZIJA 4***
Cm                    D#      B          Cm
gdje da krenes u ovov strasno doba nemas gdje
sama u tom haljetku cirkuske jahacice
  Gm       Cm
milion rubalja
         Gm         Cm
za tvoja glatka ramena
          B
daj makar ne varaj
     G#
ovog andjela na dlanu
      Cm D# F#m
  i zabo-ra-vi ako mozes
    Cm  Fm Cm Fm Cm  Fm Cm   B
  zaboravi     zaboravi  ako mozes


***VERZIJA 5***
Transkripcija: Nebojsa Stojanovic (kebi@ptt.yu)
Home         : http://www.maris.co.yu

        Uspavanka za Radmilu M.  1983. - B1


    intro:CmFm...CmD#B

        Cm                   D#            B     Cm  F6
        Gdje da krenes u ovo strasno doba, nemas gdje
        Cm                  D#         B   Cm F6
        Sama u tom haljetku cirkuske jahacice
          Gm       Cm            Gm         Cm
        Milion rubalja, za tvoja glatka ramena
                  B             G#
        Daj makar ne varaj ovog andjela na dlanu
            CmD#Fm          Cm
        I zaboravi ako mozes
          Fm  Cm    Fm  CmD#B      Cm
        Zaboravi, zaboravi,  ako mozes

        Otmjeno izgubljena opklada, to ti je
        Kao spremljen krevet malo tijesan za dvoje
        Kao haljina kada se rasiva
        Evo porodi me
        Kao srna na snijegu
        I zaboravi ako mozes
        Zaboravi
        Zaboravi ako mozes

        Gdje da krenes u ovo strasno doba, nemas gdje
        Tebi svaki krevet ovog svijeta tijesan je
        Idi pod laznim imenom, idi i putuj sjeverom
        Ili porodi me kao srna na snijegu
        I zaboravi ako mozes
        Zaboravi
        Zaboravi ako mozes

***VERZIJA 6***
Transkripcija: Igor Medarevic - mmarko@blic.net
Home         : www.2akordi.net


Solo 1
E------------------10b10b-10b10b-10b-\---------------------------
H----4-3-----------10b10b-10b10b-10b-\----4-3--------------------
G---3----5-3-5---------------------------3----5-3-5--11h13b--~~--
D--3----------5--~----------------------3------------------------
A----------------------------------------------------------------
E----------------------------------------------------------------

E------11-10-----------------------------15-13-----------
H--13-------11-11-11/13---13-13-13------------16-15b-13--
G--12------------------12---------12-~~------------------
D--------------------------------------------------------
A--------------------------------------------------------
E--------------------------------------------------------

E--15-13-----------------------------------11-10---------------
H-------16-15b-13--15h16-13-~----11---13--------11-11h13-------
G------------------------------12-----------------------12-~~--
D--------------------------------------------------------------
A--------------------------------------------------------------
E--------------------------------------------------------------

E--------------------5/6-5/6------
H------4-3-----------5/6-5/6-5-\--
G----3-3---5p3-5-------------5-\--
D---3-----------5-~---------------
A--3------------------------------
E---------------------------------

Solo 2
E----------------3b-~~------------------------------------
H--------------4--------4-6-6p4-----4-3---------11h13-11--
G-----------3-5----------------5---3----5p3-5-------------
D----0-3-3/5----------------------3----------5------------
A--3------------------------------------------------------
E---------------------------------------------------------

E--11-10-------------------------------------------
H-------11-h12h13-------8-7------------------------
G----------------12-~------8-7-9/10-8-7-------7----
D--------------------------------------10-8-10-10--
A--------------------------------------------------
E--------------------------------------------------

E-------16b-------------------------------------
H--6-8------16--16/18--16-~~~--16/18-16---16----
G-------------17-----------------------17---17--
D-----------------------------------------------
A-----------------------------------------------
E-----------------------------------------------

E---------------------------------------11-~--
H--13-13-11-------------------------13--------
G----------12---------------------------------
D-------------13-10---13-13-13-13-13----------
A---------------------------------------------
E---------------------------------------------

E--8-11-8-11-8-11-8--15b-/17--15------15/17-15-----------
H-------------------------------16-15---------16-15--13--
G--------------------------------------------------------
D--------------------------------------------------------
A--------------------------------------------------------
E--------------------------------------------------------