Bjesovi - Avioni Pevaju

Transkripcija: Stefan Stefanovic (ryknow@37.com)
	
 
Ovo naravno nije 100% tacna tablatura ali ovako ja sviram ovu pesmu.
Ako imate nekih komentara ili ste uocili neke greske molim vas da mi 
pisete na sledecu adresu ryknow@37.com


intro (bass)[palm muting]:

A:---3---3-3-----3---3-3-----2---2-2-----2---2-2
E:-5---5-------5---5-------3---3-------3---3----


to isto se moze i odsvirati i ovako ako vam je lakse

E:--5--8---5--8-8---5--8---5--8-8---3--7---3--7-7---3--7---3--7-7--


gitara [lagano]: 
e:----------------------------------------------------------
H:-------------------------------------------------8/10--8--
G:-------------------7--5--4/5--4--4/5-----5/7--5-----------
D:-------------5--7---------------------5-------------------
A:-------5--7-----------------------------------------------
E:-5--8-----------------------------------------------------


pa onda malo brze improvizujte
e:-------------------------------------------------------------------
H:-------------------------------------------8/10-8-----------8/10-8-
G:-------------5-7-------------7-5-5-4-4h5-4--------5-4-4h5-4--------
D:---------5-7-------------5-7---------------------------------------  X4 (improvizacija)
A:-----5-7-------------5-7-------------------------------------------
E:-5-8-------------5-8-----------------------------------------------


refren se moze odsvirati vrlo lako i tacno sa wah pedalom i cimanjem 
rucice (trem. bar)
 
                 
          [Am] X2              [G] X2

e:----------5-------------------3-----------------
H:----------5-------------------3-----------------
G:----------5-------------------4-----------------
D:----------7-------------------5----------------- X2 (x4) slusajte pesmu za tajming
A:----------7-------------------5-----------------
E:----------5-------------------3-----------------
             ////  //// //////    //// //// //////

             (pedala+trem.baR)    (pedala+trem.baR)


lagani solo:

e:---------------------------------------------------------
H:---------------------------------------------------------
G:-----5-/-7----5----5-/-7----5----4-/-5----4----4-/-5-----
D:---------------------------------------------------------
A:---------------------------------------------------------
E:---------------------------------------------------------


naravno to nije sve ima jos solo koji svira usna harmonika koji se moze 
aranzirati za gitaru
Nemojte mi zameriti ovo je moja prva tablatura...jos jednom komentare 
posaljite na ryknow@37.com  S.Stefanovic