Bjesovi - Ne Budi Me (ubij Me)

Transkripcija: S.Stefanovic (ryknow@37.com)


main riff:    
e:----------------------------------------------
H:----------------------------------------------
G:----------------------------------------------
D:--2-h-4--4-p-2--2-h-4--4-p-2--2-p-4--4--5--4--
A:--2-h-4--4-p-2--2-h-4--4-p-2--2-p-4--4--5--4--
E:--0-h-2--2-p-0--0-h-2--2-p-0--0-h-2--2--3--2--


cetvrti put druga gitara se ubacuje:

e:-------------------------------------------------------
H:-------------------------------------------------------
G:-------------------------------------------------------
D:--9-/-11--11\-9----9-/-11--11\-9----9-/-11--11--12--11-
A:--7-/-9---9-\-7----7-/-9---9-\-7----7-/-9---9---10--9--
E:-(0)--------------(0)--------------(0)-----------------


riff 2 - P [palm muting]-prigusivanje dlanom leve ruke

e:------------------------------------------------
H:------------------------------------------------
G:------------------------------------------------
D:-2-2--2-2--2-2--2-2-2-4--5-5--5-5--5-5--5-5-5-4-
A:-2-2--2-2--2-2--2-2-2-4--5-5--5-5--5-5--5-5-5-4-
E:-0-0--0-0--0-0--0-0-0-2--3-3--3-3--3-3--3-3-3-2-  
      P    P    P             P    P    P