Bjesovi - Raduj Se

Transkripcija: Ivan Vasic (ivasic@cent.co.yu)
Home         : http://www.tablature.co.yu



Uvod:                                                         
Gitara 1
E||--------------------------|--------------------------|
B||--------2-----------2-----|--------2-----------2-----|
G||-----------2--------------|-----------2--------------|
D||-----2-----------2-----2--|-----2-----------2-----2--|
A||--0-----------1-----------|--0-----------1-----------|
E||--------------------------|--------------------------|


Gitara 2                                       
-------------------------------------||
-------------------------------------||
-------------------------------------||
----5---4---5---7---11---12---14---7-||
--0---0---0---0---0----0----0----0---||
-------------------------------------||

Tekst: Raduj se.