Bjesovi - Sve Sto Vidim I Sve Sto Znam

Transkripcija: Ivan Vasic (ivasic@cent.co.yu)
Home         : http://www.tablature.co.yu



Intro i prva strofa:
E||--0----0----0----0-----2---|--------------|
B||--2----2----1----1-----3---|--------------|
G||--2----2----0----0-----2---|--------------|
D||--2----2----2----2-----0---|--------------|
A||--0----0----3----3---------|--5b--5br--3--|
E||---------------------------|--------------|

Brzi deo sa distorzijom :
E--------------------||
B--------------------||
G--------------------||
D------5\7-----------||
A--0-0-----3-5-5br-3-||
E--------------------||
Ti si sve sto vidim, ti si sve sto vidim ...

A             C            D
Sve sto znam, sve sto znam ....