Bjesovi - U Osvit Zadnjeg Dana

Transkripcija: Milan Pavlovic (paparaco@EUnet.yu)
Home         : http://www.yutabs.f2s.com


  Tema :
  E                                E
E|--------------------------------|--------------------------------|\
H|--------------------------------|--------------------------------||
G|--------------------------------|--------------------------------||
D|--------------------------------|--------------------------------||x2
A|--------------------------------|--------------------------------||
E|0-------0---0---2-------0---3---|(3)-0---3-------2---------------|/


  Varijacija 1 :
  E                                E
E|--------------------------------|--------------------------------|\
H|--------------------------------|--------------------------------||
G|--------------------------------|--------------------------------||
D|--------------------------------|--------------------------------||x2
A|--------------------------------|----------------1---------------||
E|0-------0---0---2-------0---3---|(3)-0---3-----------------------|/


  Varijacija 2 :
  A                                A
E|--------------------------------|--------------------------------|\
H|--------------------------------|--------------------------------||
G|--------------------------------|--------------------------------||
D|----------------------------2---|(2)-1---2-------1---------------||x2
A|0-------0---0---2-------0---3---|(3)-2---3-------2---------------||
E|--------------------------------|--------------------------------|/


  Solo 1 :
  E                                E
E|--------------------------------|--------------------------------|
H|8-------------------------------|(8)---------8---10b12-----------|
G|9-------------------------------|(9)-----9-----------------------|
D|--------------------------------|--------------------------------|
A|--------------------------------|--------------------------------|
E|--------------------------------|--------------------------------|

  E                                E
E|--------10----------------------|--------------------------------|
H|10b12-------(12)r10--8--10--8---|(8)-----------------------------|
G|--------------------------------|--------9---7---9---------------|
D|--------------------------------|--------------------------------|
A|--------------------------------|--------------------------------|
E|--------------------------------|--------------------------------|

  E                                E
E|15-12---12----------------------|--------------------------------|
H|-----15---15-12-15-12---12------|--------------------------------|
G|---------------------14---14-12-|14-12---12--14~~----------------|
D|--------------------------------|-----14-------------------------|
A|--------------------------------|--------------------------------|
E|--------------------------------|--------------------------------|
  \--3--\ \--3--\ \--3--\ \--3--\  \--3--\

  E                                E
E|--------------------------------|--------------------------------|
H|--------------------------------|----10b12---8-------------------|
G|--------------------------------|9---------------9---------------|
D|-------------------------9----9-|--------------------------------|
A|--------10---10-12-10-12---12---|--------------------------------|
E|12-10-12---12-------------------|--------------------------------|
  \--3---\\--3--\ \--3---\ \-3--\


  Solo 2 :
  E                                E
E|--------------------------------|--------------------------------|
H|--------------------------------|------------8---10b12-----------|
G|9-------------------------------|(9)-----9-----------------------|
D|--------------------------------|--------------------------------|
A|--------------------------------|--------------------------------|
E|--------------------------------|--------------------------------|

  E                                E
E|--------10----------------------|--------------------------------|
H|10b12-------(12)r10--8--10--8---|(8)-----------------------------|
G|--------------------------------|--------9---7---9---------------|
D|--------------------------------|--------------------------------|
A|--------------------------------|--------------------------------|
E|--------------------------------|--------------------------------|

  E                                E
E|15-12---12----------------------|--------------------------------|
H|-----15---15-12-15-12---12------|--------------------------------|
G|---------------------14---14-12-|14-12---12--14~~----------------|
D|--------------------------------|-----14-------------------------|
A|--------------------------------|--------------------------------|
E|--------------------------------|--------------------------------|
  \--3--\ \--3--\ \--3--\ \--3--\  \--3--\

  E                                E
E|--------------------------------|--------------------------------|
H|--------------------------------|--------------------------------|
G|------------------12-14b16-14b16|14b16r14-12--14-----------------|
D|-------------12-14--------------|--------------------------------|
A|-----10-12/14-------------------|--------------------------------|
E|10/12---------------------------|--------------------------------|

  A                                A
E|--------------------------------|--------------------------------|
H|----1013101310131013101310131013|101310131013101310131013101310--|
G|--------------------------------|--------------------------------|
D|--------------------------------|--------------------------------|
A|--------------------------------|--------------------------------|
E|--------------------------------|--------------------------------|
      \--------------ovo su desetke i trinaestice---------------\

  A                                A
E|--------------------------------|--------------------------------|
H|15------131513----13------------|--------------------------------|
G|----------------14---14-14------|1214121412--14--14--------------|
D|--------------------------------|--------------------------------|
A|--------------------------------|--------------------------------|
E|--------------------------------|--------------------------------|
                  \--3--\

  A                                A
E|--------------------------------|--------------------------------|
H|--------------------------------|--------------------------------|
G|------------------------5---7b9-|(9)-9r7-----5---7---------------|
D|----------------5---7-----------|--------------------------------|
A|--------5--5--7-----------------|--------------------------------|
E|5--5--8-------------------------|--------------------------------|
  \--3--\ \--3--\

  A                                A
E|--------------------------------|--------------------------------|
H|--------------------------------|--------------------------------|
G|7b9---------7b9-----5---7---5---|(5)-----------------------------|
D|--------------------------------|--------7---5---7---------------|
A|--------------------------------|--------------------------------|
E|--------------------------------|--------------------------------|


U osvit zadnjeg dana
Jedna se misao rodila
Ali rec nikada
 
Spremas se da letis
Pravo i daleko
A ja te vise nikad necu gledati