Bjesovi - Vracam Se Dole

Transkripcija: Emir Maslo (grile16@hotmail.com)


 Intro:
    A5 G#5   F#5                      A5 G#5
|----------------------------------------------|
|----------------------------------------------|
|----------------------------------------------|
|----7--6----4--4--4--4---------------7--6-----|
|----7--6----4--4--4--4--4x-----------7--4-----|
|----5--4----2--0--2--0---------------5--4-----|
 
  Riff1
|----------------------------------------------|
|----------------------------------------------|
|----------------------------------------------|
|---4--4--4--4--4--4--4--4--4--4--4--4---------|4x
|---4--4--4--4--4--4--4--4--4--4--4--4---------|
|---2--0--2--0--2--0--2--0--2--0--2--0---------|

Riff2
|-----------------------|
|-----------------------|
|-----------------------|
|---7--6---4--4--4--4---|
|---7--6---4--4--4--4---|
|---5--4---2--0--2--0---|


G#5              A5      Riff1
Ponekad nocu pomislim
G#5               A5              Riff1
Mozda gresim ali stvarno smo sami
G#5                  A5       Riff1
Jutra su teska ja ih ne vidim
G#5                  A5           Riff1
Jedino znam da treba krenuti dole

 Riff2 3x   

A5 G#5            Riff1
        Vracam se dole

Riff2
Ustajem nemam
sta da vam kazem
Zelim da promenim
Oci i lice
Guram mozak
Natrag u glavu
Ostavljam poruku
Vracam se dole

Riff1 4X

Jos jednom se sve ponovi i to je to.