Bjesovi - Vreme Je

Transkripcija: Milan Petrovic (comi011@beotel.net)


       E5          E5           E5             D5 E5 F5 G5   E5
  e-----------------------------------------|---------------]---]
  H-----------------------------------------|---------------]---]
  G-----------------------------------------|---------------]---]
  D---2222---------2222---------2222--------|--7-9-10--12---]-9-]
  A---2222---------2222---------2222--------|--5-7--8--10---]-7-]
  E---0000--3b(4)--0000--5b(6)--0000--3b(4)-|---------------]---]

     E5 D5# D5 C5#
  e----------------]---12~-11~-10~-9~------]
  H----------------]-----------------------]
  G----------------]-----------------------]
  D---9--8--7--6---]-----------------------]
  A---7--6--5--4---]-----------------------]
  E----------------]-----------------------]


***VERZIJA 2***
Transkripcija: NiKoLa5


BASS:

    G--------------------------------------------------
    D------------------------------------5-------------
    A------------------------------5-7-8--------------- 3 Puta
    E-0-0-0-3---0-0-0-5---0-0-0-3----------------------

    i onda zadnji put ides
    G----------------------------------------------------------------
    D------------------------------------5-----5-7-8--------5--------
    A------------------------------5-7-8----8---------5-7-8----------
    E-0-0-0-3---0-0-0-5---0-0-0-3--------------------------------0~--

E
Jesam li znao
    G----------------------
    D--------5-------------
    A--5-7-8---------------
    E------------0---------
E
Jesam li video
    G----------------------
    D--------5-------------
    A--5-7-8---------------
    E------------0---------
E
Jesam li video
    G----------------------
    D--------5-------------
    A--5-7-8---------------
    E------------0---------
E
To sto sam gledao
    G--------------------------------------------------
    D------------------------------------5-------------
    A------------------------------5-7-8--------------- 3 Puta
    E-0-0-0-3---0-0-0-5---0-0-0-3----------------------

    i onda zadnji put ides

    G----------------------------------------------------------------
    D------------------------------------5-----5-7-8--------5--------
    A------------------------------5-7-8----8---------5-7-8----------
    E-0-0-0-3---0-0-0-5---0-0-0-3--------------------------------0~--

E
Molbu za pomoc shvatio
    G----------------------
    D--------5-------------
    A--5-7-8---------------
    E------------0---------
E
Uzalud ruku pruzio
    G----------------------
    D--------5-------------
    A--5-7-8---------------
    E------------0---------
E
Od Boga pomoci nemao
    G----------------------
    D--------5-------------
    A--5-7-8---------------
    E------------0---------
    
Da spasim te nisam uspeo
    G--------------------------------------------------
    D------------------------------------5-------------
    A------------------------------5-7-8--------------- 3 Puta
    E-0-0-0-3---0-0-0-5---0-0-0-3----------------------

    i onda zadnji put ides

    G----------------------------------------------------------------
    D------------------------------------5-----5-7-8--------5--------
    A------------------------------5-7-8----8---------5-7-8----------
    E-0-0-0-3---0-0-0-5---0-0-0-3--------------------------------0~--



Onda ide ovaj dio
E[=TAB==][=TAB==]    D#
Da spasim te nisam uspeo
D[=TAB==][=TAB==]     C#
I srce moje vec belo je
E[=TAB==][=TAB==]     D#
Jer sebe vise ne poznajem
D[=TAB==][=TAB==][=TAB==]C#
I vreme za odlazak doslo je


Tu sviras ovo
    G-----------------------------------------------------------------
    D-----------------------------------------------------------------
    A--7-7-7-7-7--7-7--6-6-6-6-6--6-6--5-5-5-5-5--5-5--4-4-4-4-4--4-4- 2 Puta
    E-----------------------------------------------------------------

POSLIJE 2 PUTA IDE,

DOSLO JEEEEEEEEEEEEEEEEEEEE i ide ovaj dio opet

    G--------------------------------------------------
    D------------------------------------5-------------
    A------------------------------5-7-8--------------- 3 Puta
    E-0-0-0-3---0-0-0-5---0-0-0-3----------------------

    i onda zadnji put ides

    G----------------------------------------------------------------
    D------------------------------------5-----5-7-8--------5--------
    A------------------------------5-7-8----8---------5-7-8----------
    E-0-0-0-3---0-0-0-5---0-0-0-3--------------------------------0~--


onda ti ide solo... poslije ovoga, za solo samo sviras E i dodavas F.
      F  E E E  E E  itd...
    G-----------------------------------------------------------------------
    D-----------------------------------------------------------------------
    A-----------------------------------------------------------------------
    E-1~-0-0-0--0-0---1~-0-0-0--0-0---1~-0-0-0--0-0---1~-0-0-0--0-0-----0~--

ovo ide kroz cijeli solo....

Onda ide ovo

    G----------------------------------------
    D--------5-----5-7-8------------5--------
    A--5-7-8----8------------5-7-8-----------
    E------------------------------------0~--


Onda se ponavlja ovaj dio...

E[=TAB==][=TAB==]    D#
Da spasim te nisam uspeo
D[=TAB==][=TAB==]     C#
I srce moje vec belo je
E[=TAB==][=TAB==]     D#
Jer sebe vise ne poznajem
D[=TAB==][=TAB==][=TAB==]C#
I vreme za odlazak doslo je


Tu sviras ovo
    G-----------------------------------------------------------------
    D-----------------------------------------------------------------
    A--7-7-7-7-7--7-7--6-6-6-6-6--6-6--5-5-5-5-5--5-5--4-4-4-4-4--4-4- 2 Puta
    E-----------------------------------------------------------------

POSLIJE 2 PUTA IDE,

DOSLO JEEEEEEEEEE i VREME JEEEEEEEEEEE i to je ovo, samo na kraju....

    G--------------------------------------------------
    D------------------------------------5-------------
    A------------------------------5-7-8--------------- 3 Puta
    E-0-0-0-3---0-0-0-5---0-0-0-3----------------------

    i onda zadnji put ides

    G------------------------------------------------------------------
    D------------------------------------5-----5-7-8--------5----------
    A------------------------------5-7-8----8---------5-7-8----8#------
    E-0-0-0-3---0-0-0-5---0-0-0-3----------------------------------0~--


I to je to...

Gledajuci ovo mozete da ocjenite za gitaru kako bi trebalo da izgleda,
kad budem imao vremena sredicu i solo i sve ostalo...
sad sam na poslu ovo iz glave pisem mom basisti da navjezba za probu :)


Znamd a izgleda puno, ali je veoma jednostavno :)

POslusaj i dok slusas ono pregledaj i vidjeces da se dosta toga ponavlja,
ima samo dosta prelaza...