Block Out - 1228 - Zecevi Beli

Transkripcija: Milan Pavlovic (paparaco@EUnet.yu)
Home         : http://www.yutabs.f2s.com


  Tema:
  D5               D5               D5               D5
E|----------------|----------------|----------------|----------------|
H|----------------|3---------------|------------3---|--------3h5p3---|
G|2-------3-------|--------3---2---|----3-----------|----3-----------|
D|----0-------0---|----0-----------|0-------0-------|0---------------|
A|----------------|----------------|----------------|----------------|
E|----------------|----------------|----------------|----------------|

  Strofa(prigusena):
E|----------------|----------------|----------------|----------------|
H|----------------|----------------|----------------|----------------|
G|----------------|--------10------|----------------|----------------|
D|7---X---7---7---|----10------9---|X---9---X---9---|X---9---9---9---|
A|5---X---5---5---|8-----------7---|X---7---X---7---|X---7---7---7---|
E|----------------|----------------|----------------|----------------|

  Strofa(neprigusena):
E|----------------|----------------|----------------|----------------|
H|----------------|----------------|----------------|----------------|
G|----------------|----------------|----------------|----------------|
D|----------------|----------------|----------------|----------------|
A|5---5---5---5---|8---8---8---7---|7---7---7---7---|----------------|
E|----------------|----------------|----------------|5---5---5---5---|

  Strofa(razlaganje):
E|----------------|----------------|----------------|----------------|
H|--------3-------|--------3-------|----3-----------|(3)-------------|
G|----2-----------|----2-----------|0---------------|(0)-------------|
D|0---------------|3-----------2---|(2)-------------|(2)-------------|
A|----------------|----------------|----------------|----------------|
E|----------------|----------------|----------------|----------------|

  Prelaz:
E|----------------|----------------|----------------|--------|
H|----------------|----------------|----------------|--------|
G|----------------|----------------|----------------|--------|
D|----------------|5---------------|------------8---|(8)-----|
A|--------8-------|--------8-------|----8-----------|----8---|
E|6---------------|------------6---|(6)-------------|--------|

E|----------------|----------------|----------------|--------|
H|----------------|----------------|----------------|--------|
G|----------------|----------------|----------------|--------|
D|--------8-------|5---------------|------------8---|8---8---|
A|6---------------|--------8-------|----8-------8---|8---8---|
E|----------------|------------6---|(6)---------6---|6---6---|

  Refren:
Bmaj7   A7
Secanja naviru sama
Brzo ko zecevi beli

  Solo(posle drugog refrena): prigusena tema, na kraju B

  Korsceni akordi:
D5   -XX023X
Bmaj7-X13231
A7   -X02020
B    -X13331