Block Out - Andrej

Transkripcija: Johnny (johnny47ns@yahoo.com)
Album        : Ako imas s kim i gde [2004]



 Intro:
  F#madd9             F#madd9
E-----------------------------------------
H------------------------------------3----
G--------------------------------------6--
D--6-666--666-4--------6-666--666-4-(4-4)-
A-4---4---------4-4-4-4---4--------4------
E-2--2-------------2--2--2----------------

  Fmadd9              Fmadd9
E-----------------------------------------
H------------------------------------2----
G--------------------------------------5--
D--5-555--555-3--------5-555--555-3-(3-3)-   (oba x4)
A-3---3---------3-3-3-3---3--------3------
E-1--1-------------1--1--1----------------


 Heavy stuff:
       D5                              F#5
E-----------------------------------------------
H-----------------------------------------------
G--4-/-7---7------------------------------------
D--4-/-7---77777777777777777777777777--4--------
A--2-/-5---55555555555555555555555555--4-44..---
E--------------------------------------2-22...--


F#5              E5
 Reci nisu vazne, ocima se kaze
F#5                   E5
 Skupljam zlatne ruke, filter tudje bruke
D5          D5/G  F#5
 Ispred mene pustinja..

F#5             Esus4 E
 Kako se to zove kad ti neko dodje
F#5              Esus4 E
 u nemirne snove i sebi pozove
D5        D5/G F#5
 Vera ili istina..

 
REFREN:
   E5 D5      E5  D5       D5       D5      F#5
E------------------------------------------------
H-------------------------------------------------
G--9-/7----77--9-/7----77--7--------7--------------
D--9-/7----77--9-/7----77--7--------7--------4-----
A--7-/5-55-55--7-/5-55-55555-555555-5-555----4------
E------------------------------------------0h2-22..-
                  Ljudi se dele na  glupe i zle
                  Ljudi se trude da uniste  sve

 Asus4 A A5       Asus4 A A5       F#5
E---------------------------------------
H--3--2-------------3--2----------------
G--2--2--2----------2--2--2--------------
D--------2----------------2--------4-------
A--------0----------------0--------4-------
E----------------------------/\--0h2-2222..--
          Nisam ja           gluvo-nem...
          Nisam ja           gluvo-nem...


 PRELAZ:

 D5

 D5

 D5
E--------------------------------------
H--------------------------------------
G--------------------------------------
D-7----7--8-X-8---66666-66--6-X-6-6666- (x2)
A-5-XX-5--5-X-5---55555-55--5-X-5-5555-
E--------------------------------------


  F#5add9             F#5
E------------------------------
H------------------------------
G------------------------------
D-6666666666666666666-77777777-
A-4444444444444444444-44444444-
E-2222222222222222222-22222222-

  F#5add9             F#5
E------------------------------
H------------------------------
G------------------------------
D-6666666666666666666-44444444-
A-4444444444444444444-44444444-
E-2222222222222222222-22222222-

  F#5add9             F#5
E------------------------------
H------------------------------
G------------------------------
D-6666666666666666666-77777777-
A-4444444444444444444-44444444-
E-2222222222222222222-22222222-

  C5              C4
E------------------------------
H------------------------------
G-5555555555555555555555555555-
D-5555555555555555333333333333-
A-3333333333333333333333333333-
E------------------------------


F#5                D5
 Krupne kisne kapi, nebeske sve su to suze
F#5            D5
 Nestaju u vodi sve tajne zelje iz podsvesti
E5 D5           D5                  F#5
   A nad mokrom glavom mi jos stoji krov
E5 D5                             F#5
   Hteo sam nesto al ne znam da'l smem
Asus4 A        Asus4 A F#5
       Nisam ja       gluvonem..
Asus4 A        Asus4 A F#5
       Nisam ja       gluvonem..

   E5 D5      E5  D5       D5       D5      F#5
E------------------------------------------------
H-------------------------------------------------
G--9-/7----77--9-/7----77--7--------7--------------
D--9-/7----77--9-/7----77--7--------7--------4-----
A--7-/5-55-55--7-/5-55-55555-555555-5-555----4------
E------------------------------------------0h2-22..-
                  Nisam ja            gluvonem
                  Nisam ja            gluvonem


 F#5add9   F5add9