Block Out - Armatura 2

Transkripcija: Milan Pavlovic - paparaco@EUnet.yu


   Tema:
   Db          Ab           Hbm         Fm
Eb|2-----2-----0-----0---2-|------------------------|
Hb|----3---3-------2---2---|3-----3-----2-----2---3-|
Gb|--2-------2---2---------|----4---4-------2---2---|
Db|0-----------------------|--4-------4---4---------| Gitara 1
Ab|------------0-----------|2-----------2-----------|
Eb|------------------------|------------------------|
  |                        |                        |
Eb|5-----5-----5-----5-----|2-----2-----2-----2-----|
Hb|----7---7-------5-------|----3---3-------2-------|
Gb|--6-------6---6---------|--2-------2---2---------|
Db|------------------------|------------------------| Gitara 2
Ab|5-----------------------|2-----------------------|
Eb|------------5-----------|------------2-----------|


   Ebm         Ebm7         Ab7sus4     Ab7
Eb|------------------------|----------------------0-|
Hb|0-----0-----------3-----|3-----3-----2-----2-3---|
Gb|----0---0-------0---0---|----0---0-------0-------|
Db|--2-------2---2-------2-|--2-------2---2---------|
Ab|------------------------|0-----------0-----------|
Eb|0-----------0-----------|------------------------|
  |                        |                        |
Eb|------------2-----2-----|2-----2-----0-----0-----|
Hb|3-----3---------3---3---|----3---3-------2-------|
Gb|----0---0-----0-------0-|--0-------0---0---------|
Db|--2-------2-------------|------------------------|
Ab|------------------------|0-----------0-----------|
Eb|0-----------0-----------|------------------------|


  Strofa:

Ti zelis
Db              Ab
da ne zaboravis san koji plasi te,
Hbm             Fm             Ebm    Ebm7
a nemas reci da opises njegove zvuke,
  Ab7sus4  Ab7
a cuju se.


Nisu ko zemlja kad drhti
na sekund pre smrti,
ni vetar kad nosi tek umrlo lisce sto truli
i mirise
na topli miris sto cedi ti suze iz ociju,
oci mu svetle, strah trci od srca do kostiju.
I vristis.

Crn je taj ogromni pas,
skace, napada, branis se rukama,
nema ti spasa, probudi se,
oteraj svog djavola iz sna.


(ponavljati temu do kraja)