Block Out - Beltaine

Transkripcija: Milan Pavlovic (paparaco@EUnet.yu)
Home         : http://www.yutabs.f2s.com


  Uvod :
  G                Dm7              Cmaj7            Cmaj7
E|----------3-----|----------5-----|-------------3--|----3-----------|
H|----------3-----|----------6-----|------------5---|-----5----------|
G|----------4-----|----------5-----|-----------4----|------4---------|
D|----------------|------7---------|----------5-----|----------------|
A|----------------|5-------------2-|3---------------|----------------|
E|3---------------|----------------|----------------|----------------|

  Strofa :
  G                Dsus2            Em      Dsus2    C       C/H
E|--------3-------|------0-----0---|--0-------0-----|--0-------0-----|
H|----------3---3-|--------3-----3-|----0-------3---|----1-------1---|
G|------0-----0---|----2-----2-----|------0-------2-|------0-------0-|
D|----0-----------|0---------------|--------0-------|----------------|
A|----------------|----------------|----------------|3-------2-------|
E|3---------------|----------------|0---------------|----------------|

  Am               Am               Dsus4            D
E|----------------|--------0-------|------3---------|------2---------|
H|-----0h1p0------|----------1-----|------------3---|----3-------3---|
G|-----------2----|------2-----2---|----2-----2---2-|--2-------2---2-|
D|----2--------2--|----2---------2-|0---------------|0---------------|
A|0--------------0|0---------------|----------------|----------------|
E|----------------|----------------|----------------|----------------|

  Solo :
  G                Dm7              Cmaj7            Cmaj7
E|----------------|----------------|----------------|----------------|
H|--------3/5-3---|--------3/5-3-0-|1--0------------|----------------|
G|----------------|----------------|------2-0-------|----------------|
D|----------------|----------------|--------------0-|2---------------|
A|----------------|----------------|----------------|----------------|
E|----------------|----------------|----------------|----------------|
                                    /--3--/

Pitanje zasto
Nemas slovo ti
Na izvoristu svojem
Sa srecnim brojem

Odgovor ne znam
Cekam neobrijan
Mamuran i prazan
Da mi das

Vreme ne postoji
Postoje koraci
A koraci su dugi
Il' su kratki

Slep na slobodi
Kao krv u vodi
Koja vecno roni
Bori se za smeh

Sijaju oci
Beli kamen u plicaku
Led se znoji
Bol ne postoji

***VERZIJA 2***
Transkripcija: Ivan Vasic (ivasic@cent.co.yu)
Home         : http://www.tablature.co.yu



Intro:

   G        Dm7        C
E--3--------------------------------------|
A-----------5--------2\3-3----------------|
D-----5--------7-----------2--------------|
G--------4-------5-----------0---------0--|
H--------3-------6-------------1-----1----|
E--------------------------------3-3------|

E-3----------------------------------------0------------------------------------
A-------------------------------------------------------------3---------2-------
D----------5------0---------------------------------0-----------2---------0-----
G-------4------------2-----------2-----------0--------2-----------0---------0---
H----3------------------3-----3-----3----------0--------3-----------1---------1-
E--------------------------0---------------------0--------0---------------------
  P i t a nj e  zasto            nemas    slovo     ti  na   i z v o - r i s t u

E--------------------------------------------------------|
A--0----------------0-0----------------------------------|
D----2-----------2------2-----------2----0---------------|
G------2-------2----------2-------2--------2-------2-----|
H--------0h1p0--------------1---1------------3---3-----3-|
E-----------------------------0----------------3-----2---|
   svojem                         sa srecnim brojem


odgovor ne znam cekam neobrijan, mamuran i prazan,
da mi das.
Sijaju oci, beli kamen u plicaku, led se znoji
bol ne postoji
Slep na slobodi, kao krv u vodi koja vecno roni
bori se za smeh
...........................