Block Out - Blentostamin

Album        : San Koji Srecan Sanjas Sam, 1998
Transkripcija: Johnny (johnny47ns@yahoo.com)
Tekst        : raha15@yahoo.com


 A5
E---------------------
H---------------------
G--------------8-7-6--
D----------7p6--------
A------6p5------------   X 8
E--5p4----------------


 Strofa:
  PM............................... B
E-----------------------------------------------------------------------------
H-----------------------------------3-3-3-3-3-3-3-3-3-3-3-3-3-3-3-3-3-3-3-3-3-
G-----------------------------------0-0-0-0-0-0-0-0-0-0-0-0-0-0-0-0-0-0-0-0-0-
D----3---3---3---3---3---3---3---3--3-3-3-3-3-3-3-3-3-3-3-3-3-3-3-3-3-3-3-3-3-
A--0---0---0---0---0---0---0---0----1-1-1-1-1-1-1-1-1-1-1-1-1-1-1-1-1-1-1-1-1-
E-----------------------------------------------------------------------------

  Nedelja.
  Ne jedem, ne pijem
  Smrdim, trulim, raspadam se, disem,
  Dakle ziv sam

  Javio se djavo da ne dolazi po svoje
  Salje glumca amatera koji upravo mi ulazi u stan
  Da se setim da postojim

  Zdravo, dobar dan, gornjom polovinom tela
  Ja ga pozdravljam, il' se ne secam odakle ga se
  Secam

  Prijatelj,
  Ljubomorni pas
  Po zanimanju mi drzi kraci kurs
  O pristojnom ponasanju

 REFREN:
 G            G
 Doci ce dan, doci ce dan,
        D#                                            C
 Kad cu prestati da pitam zasto bolnice su pune finog sveta
 G            G
 Doci ce dan, doci ce dan,
        D#                                            C
 Kad cu prestati da pitam zasto bolnice su pune finog sveta


 INTRO

 Sedim na krevetu,
 Cutim i vrebam
 Lovim davno pobegle recenice po vazduhu
 I cekam...
 Cekam...

 Cekam odjavnu spicu
 Sa grcem na licu
 U nadi da smo konacno isplatili racune
 Jedan drugome


 Zdrobio sam flasicu od lekova
 I pojeo je kasikom u slast
 Za predjelo, za rucak imam sebe
 Za veceru sta ostane od rucka!

 I sad cekam radni ucinak
 Onaj ko prezivi pricace mi
 Sta se stvarno desilo
 U nedelju


 "Solo?":
                                      B
E--4~---------3-2~---4~---------3-2~------------------
H-----2~--3~------------2~--3~--------3-3-3-3-3-3-3-3-
G-------------------------------------0-0-0-0-0-0-0-0-
D-------------------------------------3-3-3-3-3-3-3-3-
A-------------------------------------1-1-1-1-1-1-1-1-
E-----------------------------------------------------
                                      B
E777~---------5-4~---7~---------6-5~------------------
H-----5~--6~------------5~--6~--------3-3-3-3-3-3-3-3-
G-------------------------------------0-0-0-0-0-0-0-0-
D-------------------------------------3-3-3-3-3-3-3-3-
A-------------------------------------1-1-1-1-1-1-1-1-
E-----------------------------------------------------


  G            G
 Doci ce dan, doci ce dan,
        D#                                            C
 Kad cu prestati da pitam zasto bolnice su pune finog sveta
 Doci ce dan, doci ce dan,
 Kad cu prestati da pitam zasto bolnice su pune finog sveta
 Doci ce dan, doci ce dan,
 Kad cu prestati da pitam zasto bolnice su pune finog sveta
 Doci ce dan, doci ce dan,
 Kad cu prestati da pitam zasto bolnice su pune finog sveta

 INTRO

E---------------------
H---------------------
G--8-7-6--------------
D--------7-6-5--------
A--------------6-5-4-- X 2
E---------------------

 INTRO

 A5