Block Out - Bunar Zelja Ne Postoji

Album        : Ako imas skim i gde...
Transkripcija: Vai, ocdesignz@hotmail.com


Riff 1:
E||------------------------|------------------------|------------------------|
B||------------------------|------------------------|------------------------|
G||------------------------|------------------------|------------------------|
D||-------7----7--7--5-----|-------7----7--7--5-----|-------7----7--7--5-----|
A||--7------------------7--|---------------------7--|---------------------7--|
E||--5---------------------|--8---------------------|--7---------------------|

-------------------------|--------------------------||
-------------------------|--------------------------||
-------------------------|--------------------------||
-------------------------|--------------------------||
--3/-5--5--5--5----5--5--|--5/-8--8--8--8--8--8--8--||
-------------------------|--------------------------||


Am     C          H
  Dosao sam da ti kazem
       B           Am
Drobim se ko mrtav krec
      C          H
Jezik kratak oci prazne
        B         Am
Ne znam onu pravu rec

Sta to jeste sta to mora
Sekund srece minut bola
Skupljam suze snove disem
Vazduh lovim gasim se  Riff 1

Molim se za put do kuce
Molim te za tren tisine
Gradovi su dno slobode
Sa tri oka, troglavi


C       G       Am
 Borim se i ne ide mi

Probao sam razne stvari
C      G        G# Am  Riff 1
 Bunar zelja ne postoji


Bunar zelja ne postoji        (Isti akordi kao i kod strofe)
Da postoji skocio bih
Jedem laz ko keks i cutim
Sto da znam i ko da ne znam
To sam ja i tu je problem
Silom necu da se menjam
Vazduh lovim snove disem
Ziv bez tebe
Ziv sa tobom

Nikad                         (Isti akordi kao i u refrenu)

Nikad vise