Block Out - Carobni Akord

Transkripcija: Milan Pavlovic (paparaco@EUnet.yu)
               Milos Mladenovic - Betmen
Home         : http://www.yutabs.f2s.com


  Uvod:
  Dsus2                             A
E|0-------0-------|0---0---0--0-0--|0-------0-------|0---0---0--0-0--|
B|3-------3-------|3---3---3--3-3--|2-------2-------|2---2---2--2-2--|
G|2-------2-------|2---2---2--2-2--|2-------2-------|2---2---2--2-2--|
D|0-------0-------|0----------0----|2-------2-------|2---2------2----|
A|----------------|----------------|0---------------|0---------------|
E|----------------|----------------|----------------|----------------|

  Em
E|----------------|---------0--0---|----------------|---------0--0---|
B|----------------|---------0--0---|----------------|---------0--0---|
G|----0---0-------|---------0--0---|----0---0-------|---------0--0---|
D|2---2---2/5-----|\2-------2------|2---2---2/5-----|\2-------2------|
A|2---2---2/5-----|\2-------2------|2---2---2/5-----|\2-------2------|
E|0---0---0-------|---------0------|0---0---0-------|---------0------|


  Strofa:
  Em                                A
E|-------0---0--0-|0------0---0--0-|-------0---0--0-|0---------------|
B|-------0---0--0-|0------0---0--0-|-------2---2--2-|2---------------|
G|-------0---0--0-|0------0---0--0-|2------2---2--2-|2-----0-2/3\2p0-|
D|2------2---2----|-------2--------|2------2---2----|------0-2/3\2p0-|
A|2---------------|----------------|0---------------|----------------|
E|0---------------|----------------|----------------|----------------|


  Deo izmedju strofa:
E|----------------|----------------|----------------|-----------15-15|
B|----------------|----------------|----------------|-----------15-15|
G|----------------|----------------|----------------|----------------|
D|----------------|----------------|----------------|----------------|
A|----------------|----------------|----------------|----------------|
E|----------------|----------------|----------------|----------------|

  Em                                A
E|15\-------------|-----------7--7-|7\9-------------|-----------15-15|
B|15\-------------|-----------8--8-|8\10------------|-----------15-15|
G|----------------|-----------7--7-|7\9-------------|----------------|
D|----------------|----------------|----------------|----------------|
A|----------------|----------------|----------------|----------------|
E|----------------|----------------|----------------|----------------|

  Em                                A
E|12\-------------|-----------9--9-|9-/11-----------|----------------|
B|12\-------------|-----------10-10|10/12-----------|----------------|
G|12\-------------|-----------9--9-|9-/11-----------|----------------|
D|----------------|----------------|----------------|----------------|
A|----------------|----------------|----------------|----------------|
E|----------------|----------------|----------------|----------------|


  Prelaz:
  Am7                               Bm7
E|0-------0-------|0---0---0--0-0--|2-------2-------|2---2---2--2-2--|
B|1-------1-------|1---1---1--1-1--|3-------3-------|3---3---3--3-3--|
G|0-------0-------|0---0---0--0-0--|2-------2-------|2---2---2--2-2--|
D|2-------2-------|2----------2----|4-------4-------|4---4------4----|
A|0---------------|----------------|2---------------|2---------------|
E|----------------|----------------|----------------|----------------|

  Fmaj7
E|0-------0-------|0---0---0--0-0--|0-------0-------|0---0---0--0-0--|
B|1-------1-------|1---1---1--1-1--|1-------1-------|1---1---1--1-1--|
G|2-------2-------|2---2---2--2-2--|2-------2-------|2---2---2--2-2--|
D|3-------3-------|3----------3----|3-------3-------|3---3------3----|
A|3---------------|----------------|3---------------|----------------|
E|----------------|----------------|----------------|----------------|


  Refren:

   Gitara 1:
  Dsus2                             A
E|0-------0-------|0---0---0--0-0--|0-------0-------|0---0---0--0-0--|
B|3-------3-------|3---3---3--3-3--|2-------2-------|2---2---2--2-2--|
G|2-------2-------|2---2---2--2-2--|2-------2-------|2---2---2--2-2--|
D|0-------0-------|0----------0----|2-------2-------|2---2------2----|
A|----------------|----------------|0---------------|0---------------|
E|----------------|----------------|----------------|----------------|

  Em
E|----------------|---------0--0---|----------------|---------0--0---|
B|----------------|---------0--0---|----------------|---------0--0---|
G|----0---0-------|---------0--0---|----0---0-------|---------0--0---|
D|2---2---2/5-----|\2-------2------|2---2---2/5-----|\2-------2------|
A|2---2---2/5-----|\2-------2------|2---2---2/5-----|\2-------2------|
E|0---0---0-------|---------0------|0---0---0-------|---------0------|

   Gitara 2:
  Dsus2                             Asus2
E|--------------0-|----------------|----------------|----------------|
B|----------3-----|---3------------|--------------0-|----------------|
G|------2---------|-------2--------|----------2-----|---2-----------2|
D|0---------------|-----------0----|------2---------|-------2--------|
A|----------------|----------------|0---------------|-----------0----|
E|----------------|----------------|----------------|----------------|

  Em
E|----------------|----------------|----------------|----------------|
B|----------------|----------------|----------------|----------------|
G|4--2------------|----------------|----------------|----------------|
D|--------5---4-5-|----------------|5/17------------|----------------|
A|----------------|----------------|----------------|----------------|
E|----------------|----------------|----------------|----------------|


  Korisceni akordi:
Dsus2 - xx0230
A     - x02220
Asus2 - x02200
Em    - 022000
Am7   - x02010
Bm7   - x24232
Fmaj7 - x33210


Mi mirisemo na smrt
Ti i ja i ovaj treci
Mocni stvor sto guli krst
Smeje nam se vec smo kupljeni

Mi mirisemo na smrt
Bolesni i besni ponosni a svesni
Mi misrisemo na skoru smrt
I zivecemo vecno u pesmi

Mi mirisemo na smrt
Ili nam se samo tako cini
Koji je carobni akord
za srecu potreban

Mi mirisemo na smrt
Ja vise ne kontrolisem pokrete
Ja mogu da te ubijem
Ja mogu da se ubijem

***VERZIJA 2***
Transkripcija: Ivan Vasic (ivasic@cent.co.yu)
Home         : http://www.tablature.co.yu


                           
Em             A    (Slide)*
Mi mirisemo na smrt ...

* Slide=
E---0-----
B---2/3\2-
G---2/3\2-
D---2/3\2-
A---0-----
E---x-----

Em		   A   Slide
... ti i ja i ovaj treci   ...


Bridge :
Em             F#m      F
Mi mirisemo na smrt     ili nam se samo tako cini

Chorus :
D9             A9        Em
Koji je carobni akord za srecu potreban...