Block Out - Dan Koji Nikad Nije Dosao

Album         : Ako Imas S Kim I Gde 2004
Transkripcija : KamenZaPete
                Johnny (johnny47ns@yahoo.com)


**napomena: dropped D stim**

     Glavni Riff:
e:-||------------------------------|---------
h:-||------------------------------|---------
g:-||------------------------------|---------
D:-||-----------0---------0--------|---------
A:-||-----0--0--0--0-0--0-0--0-----|---------
D:-||--3b-0--0--0--0-0--0-0--0-1-3-|-3b-0-...

     Uvod I:
e:-||-----------
h:-||-----------
g:-||-----------
D:-||-----------
A:-||--x-x-x-x--
D:-||--x-x-x-x--

    *u pozadini zvoni D5


Uvod II: Glavni Riff

     Strofa:
e:-||------------------------------|---------
h:-||------------------------------|---------
g:-||------------------------------|---------
D:-||-----------0---------0--------|---------
A:-||-----0--0--0--0-0--0-0--0-----|---------
D:-||--3b-0--0--0--0-0--0-0--0-1-3-|-3b-0-...
     p.m.....................................


Refren: Glavni Riff

Citav zivot ziveo za jedan dan koji nikad nije dosao
A nada poslednja strada
I umrla je sta cemo sada
Umoran tezak spor trom organizam trazi gorivo za sledeci sat
Ni tuzan ni radostan
Crna rupcaga bez dna

Mi smo zalutali i evo sad se vracamo polako ali ne znamo kako
Sreca na grobljima jos stanuju ptice
A snegovi pokrivaju tragove u blatu
Ljudi su nervozni i gadni
Vole pobede u fudbalu i ratu
Potrosio si svoje najlepse reci da ih ubedis u veru
Ona cuci pored groba tvog i place
Pita kome smo to pevali

Mi smo zalutali i evo sad se vracamo polako ali ne znamo kako
Cekali smo dan koji nikad nije dosao
Dan koji nikad nije dosao

Citav zivot ziveo za jedan dan koji nikad nije dosao
A nada poslednja strada
I umrla je sta cemo sada

Umoran tezak trom spor organizam trazi gorivo za sledeci sat
Ni tuzan ni radostan
Crna rupcaga bez dna

Sreca na grobljima jos stanuju ptice
A snegovi pokrivaju tragove u blatu
Ljudi su nervozni i gadni
Vole pobede u fudbalu i ratu

Potrosio si svoje najlepse reci da ih ubedis u veru
Ona cuci ispred groba tvog i place
Pita kome smo to pevali

Mi smo zalutali i evo sad se vracamo polako ali ne znamo kako

           E5  D#5    F5         D5(glavni riff)
Cekali smo dan   koji nikad nije dosao


====================
D5  : 0 0 0 x x x
D#5 : 1 1 1 x x x
E5  : 2 2 2 x x x
F5  : 3 3 3 x x x
====================