Block Out - Deponija

Transkripcija: Milan Pavlovic (paparaco@EUnet.yu)
Home         : http://www.yutabs.f2s.com


  Tema 1:
  A                A
E|5---5-------3---|3---------------|
H|------5---5-----|--3---3-3p2-----|
G|----------------|----------------|
D|----------------|----------------|
A|----------------|----------------|
E|----------------|----------------|

  Tema 2:
  C                C                C                    C   H   B
E|----------------|----------------|----------------|----------------|
H|----------------|----------------|----------------|----------------|
G|5-----------3---|(3)-------------|5-----------3---|----------------|
D|------5---------|----------------|------5---------|----5---4---3---|
A|----------------|----------------|----------------|----3---2---1---|
E|----------------|----------------|----------------|----------------|

  Strofa:
  Am               Am               Cm               Cm
E|5---------------|(5)-------------|8---------------|(8)-------------|
H|5---------------|(5)-------------|8---------------|(8)-------------|
G|5---------------|(5)-------------|8---------------|(8)-------------|
D|7---------------|(7)-------------|10--------------|(10)------------|
A|7---------------|(7)-------------|10--------------|(10)------------|
E|5---------------|(5)-------------|8---------------|(8)-------------|
     Prijatan dan                      na prigradskom djubristu...

  Prelaz 1:
  A                A                C                C
E|----------------|----------------|----------------|----------------|
H|------------0---|----------------|------------3---|----------------|
G|--------2-------|----2-----------|--------5-------|----5-----------|
D|----2-----------|--------2-------|----5-----------|----------------|
A|0---------------|----------------|3---------------|----------------|
E|----------------|----------------|----------------|----------------|
  A                A                C                C
E|----------------|----------------|8---------------|(8)-------------|
H|------------0---|----------------|8---------------|(8)-------------|
G|--------2-------|----2-----------|8---------------|(8)-------------|
D|----2-----------|--------2-------|10--------------|(8)-------------|
A|0---------------|----------------|10--------------|(8)-------------|
E|----------------|----------------|8---------------|(8)-------------|

  Refren:
  A                A           C    C                C
E|----------------|----------------|----------------|----------------|
H|----------------|----------------|----------------|----------------|
G|----------------|----------------|----------------|----------------|
D|2-------2-------|2-------2---5---|(5)-----5-------|5-------5-------|
A|0-------0-------|0-------0---3---|(3)-----3-------|3-------3-------|
E|----------------|----------------|----------------|----------------|
    Zaroni u vodu                   i pogledaj gore...

  Prelaz 2:
  A                A                A                A
E|----------------|----------------|----------------|----------------|
H|----------------|----1---0-------|----------------|----1---0-------|
G|2-----0---------|------------0---|2-----0---------|------------0---|
D|------------2---|----------------|------------2---|----------------|
A|----------------|----------------|----------------|----------------|
E|----------------|----------------|----------------|----------------|
  G                G                F                F
E|----------------|----------------|----------------|----------------|
H|----------------|----------------|----------------|----------------|
G|0---------------|----0-----------|----------------|----------------|
D|------4---------|--------4-------|3-----2---------|------------2---|
A|------------5---|------------5---|------------3---|--2-----3-------|
E|----------------|----------------|----------------|----------------|
  A                A                A                A
E|----------------|----------------|----------------|----------------|
H|----------------|----1---0-------|----------------|----1---0-------|
G|2-----0---------|------------0---|2-----0---------|------------0---|
D|------------2---|----------------|------------2---|----------------|
A|----------------|----------------|----------------|----------------|
E|----------------|----------------|----------------|----------------|
  G#               G#               G                G 
E|----------------|----------------|----------------|----------------|
H|----------------|----------------|----------------|----------------|
G|1-----0---------|----1---0-------|----------------|----------------|
D|------------1---|------------1---|5-----4---------|----------------|
A|----------------|----------------|------------5---|--4-----5-------|
E|----------------|----------------|----------------|----------------|

  Solo: D(riff)

  Kraj:
  A      A             C  C         D
E|----|*|----------------|----------------|
H|----|*|----------------|----------------|
G|----|*|----------------|----------------|
D|2---|*|2-------------5-|(5)-------7-----|
A|0---|*|0-------------3-|(3)-------5-----|
E|----|*|----------------|----------------|

Prijatan dan na prigradskom djubristu
Cigani traze veliki plen
Veselo tinja na prigradskom djubristu
Uslovi za rad su idealni

Prijatan dan na prigradskom djubristu
Reka je niska jos koji dan
Kada se digne, odnece dalje
Prigradsko djubre ide u grad

Kisni dan na prigradskom djubristu
Nikoga nema, kerovi laju
Dovukli su les mlade zene i pobegli
Odnece ga voda ako stigne pre kopaca

Prijatan dan na prigradskom djubristu
Kiseli miris privlaci ptice
Ovo je raj za ozbiljne razgovore
Ovo je hektar novih ideja

***VERZIJA 2***
Transkripcija: Ivan Vasic (ivasic@cent.co.yu)
Home         : http://www.tablature.co.yu

Intro:

(ovde ukoliko je moguce koristiti efekte delay ili echo, i podesiti tako da
vraca svaki ton kao da dva puta okines neku zicu. To je i resenje bez delay-a,
svaki ton po dva puta odsvirati)

Riff1
E------------------------|-----------------------|-------------------------|--
H------------------------|-----------------------|-------------------------|--
G-14------12-------------|-14------12------------|--14------12-------------|-2
D-----14------12--12\11--|-----14------12--11h12-|------14------12--12\11--|-2
A-0----------------------|-----------------------|-------------------------|-0
E------------------------|-----------------------|-------------------------|--

ovaj deo (Riff 1) ide nekoliko puta pa onda ide ovo dole (Riff 2):

Riff2
E------------------------------
H------------------------------
G------------------------------
D--10--5--8~~~-----10--5--8/---
A------------------------------
E------------------------------

posle se vraca Riff 1 pa onda isti taj riff ali brzo ...
posle "ubrzanja" ide deo samo na bas gitari i pevanje pa onda 
izmedju ima jedan "prelaz". Akordi :

E-----------------------3-
H-------0---------------1-
G---2-----2--------0----0-
D-----2-----2--------2--2-
A-0--------------3--------
E-------------------------

Drugi deo pevanja ima i gitarski podlogu, opet koristi delay 
ali sada malo brzeg rate-a. Samo ovi akordi :
(ustvari u prvom delu se koriste samo prva dva naizmenicno a posle sva 
cetiri.Morate da cujete da bi znali sta pricam)

Riff 3
E---5--------8---------8---------11--|
H---5--------8---------8---------8---|
G---5--------8---------9---------8---|
D---7--------10--------10--------10--|
A------------------------------------|
E------------------------------------|

E, i ostao je jos samo deo kada ponovo pocne ubrzanje. Ovog puta koristi 
ponovo neki efekat cini mi se "Chorus"

Riff 4
--------------------|---------------------------------------------------------
--------------------|---------------------------------------------------------
-----------5--4-----|------------5--4-----------------------------------------
--7--5-----------5--|---7--5-----------5--5--4-----5--4-----4--3--------------
--------7-----------|---------7-----------------5--------5--------4--3--4----0
--------------------|---------------------------------------------------------

Posle ponovo Riff 3 i THE END