Block Out - Finansijska Konstrukcija

Album        : San koji srecan sanjas sam (1998)
Transkripcija: KamenZaPete
Info         : cela pesma je uz dosta delay efekta



Uvod 1: Asus2(I)

Uvod 2 i Strofa:    Asus2(II) (E A A E E A A) F#m (F# F# G# A) Fmaj7 Asus2(I)

                   * tonovi u zagradama se sviraju na basu


Strofa 1:
   Asus2(II)
   Nestajem i to je sve.
     F#m
   Sekundara se muci.
         Fmaj7
   Gutam trokraku bez straha,
          Asus2(I)
   sasvim siguran u sebe.

Strofa 2:
   Ne budi me dok umirem,
   jer smeta mi kad places.
   Tvoje suze osmeh traze,
   ja ne mogu da ga nadem.

     Deonica na klavijaturama(uredjeno za gitaru):

       Asus2(I)                    F#m
e:-||--9~~~~~~~~-9-10-9-7---------------------------7-    \
h:-||---------------------10-9-7~~~~~~~~~~~--7-9-10---     \
g:-||-------------------------------------------------      \
D:-||-------------------------------------------------       \
A:-||-------------------------------------------------        \
E:-||-------------------------------------------------         \
                                                                \2
       Fmaj7               Asus2(I)                             /x
e:-||--8~~~~~~~~-8-7--------------------------------------     /
h:-||----------------10-------------------------------10--    /
g:-||-------------------10-9h11p9-------9-7---------9-----   /
D:-||---------------------------------------10-9-10-------  /
A:-||----------------------------------------------------- /
E:-||-----------------------------------------------------/


Strofa 3:
    Poseti me, podseti me
    na price iz davnina,
    dok sam verovao ljudima
    i plasio se neba.

Strofa 4:
    Finansijska konstrukcija
    je pogresna, sve pada.v
    Poraz preplacenog stiha,
    Dve-tri reci, jedan ton,
    i zbogom


     Kraj(u pozadini ide deonica na klavijaturama):

       Asus2(I)  F#m       Fmaj7      Asus2(I)
e:-||------------------------------------------
h:-||--8gb(10)---8gb(10)---8gb(10)----8gb(10)--  * gb - gradual (postepeni) bend
g:-||------------------------------------------
D:-||------------------------------------------
A:-||------------------------------------------
E:-||------------------------------------------
       Dalje     dalje sto dalje      odavde...



korisceni akordi:
========================
Asus2(I)   x 0 2 2 0 0
Asus2(II)  x 0 2 4 0(0)
F#m        2 4 4 2(2)(2)
Fmaj7      1 3 3 2(1)(0)
E5         0 2 2 x 0 (0)
========================