Block Out - Ja Ne Zelim Da Odes (devojko Mala)

Transkripcija: Johnny (johnny47ns@yahoo.com)
Album        : Crno, belo i srebrno (1994)


 RIFF:
E------------------------------
H------------------------------
G----------5-5------------5-5--
D------3-3------------3-3------
A--2-2------------2-2----------
E------------------------------

 Strofa:
   H5            F#5             F5
E------------------------------------------------------
H------------------------------------------------------
G------------------------------------------------------
D------------------------------------------------------
A--2~~~~~~~~~~----------------------------------RIFF---
E----------------2~~~~~b~~r~~~---1~~~~~~~~~~-----------
  (ovo b~~r oznacavaju da se to F# malo "pritegne" ponekad, ali ne do G, manje)


 H5
  Devojko mala
 F#5                      F5
  celicni pogled da l' si ti
                   -RIFF-
  I laka nervoza u tebi


 H5
  Nagradna igra
 F#5                       F5
  Tri dana bez vode u pustinji
                            -RIFF-
  I popust za decu do sesnaest godina

 H5                   F#5
  Kazi koliko godina imas
                          F5
  Kazi mi da li je belo u boji
                     -RIFF-    -RIFF-
  Kazi mi da li opste postoji


 C5                  -RIFF-
  Ja ne zelim da odes ...
  Ja ne zelim da odes ...
  Ja ne zelim da odes ...
  Ja ne zelim da odes ...


  Sta ce ti pesnik
  Mracnih ideja i sirokog srca
  Kada te to ne zabavlja

  Kad prodje bakljada
  I navijaci odu s tribina
  Ti ostajes sama

  Znam da su tvoji krivi
  Nisu ti dali da izlazis
  I onda je puklo u tebi odjednom

  Cemu se nadas sutra ti
  Kad imas jos cetiri zuba i
  Tri mica u dzepu

  Ima vas mnogo, svi ste vi
  Potrosna roba, svi ste vi
  Melem za drzavni budzet

  Samo se smejes, lepo je
  Nije te briga, lepo je
  Pa koliko traje, lepo je

  Ja ne zelim da odes ...
  Ja ne zelim da odes ...
  Ja ne zelim da odes ...
  Ja ne zelim da odes ...

  
  U tvojoj glavi sareni svet
  Koliko je samo lepse tu
  Nego kad udjes u tramvaj

  Prastara prica
  O coveku i konju na njemu, i njemu
  Svi to znaju na kraju
  Ne pobedjuje dobro

  Dobro bi bilo
  Da odmoris mozak i otvoris oci
  i krenes u zivot ko zena


  Ja ne zelim da odes ...
  Ja ne zelim da odes ...
  Ja ne zelim da odes ...
  Ja ne zelim da odes ...