Block Out - Kad Hodam

Transkripcija: Johnny (johnny47ns@yahoo.com)
Album        : Godina Sirotinjske Zabave [1996]


 Intro:
E---------------------------------------
H---------------------------------------
G---------------------------------------
D---2--2--2--2--2--2---2--2--2--2--2--2- (x2)
A--2--2--2--2--2--2-2-2--2--2--2--2--2--
E-0--0--0--0--0--0---1--1--1--1--1--1---

  Emadd9  Fsus2
E---2--------------
H---0--------------
G---0-----------0--
D---2---------3---- (x2)
A---2-------3------
E-0-------1--------

  Tema:
E-------------------
H-------------------
G-0-----------------
E-2------------------
H-2--/7775553-32-----
G-0--------------00-0-


Emadd9
 Trzaj.
                   Fsus2
 Budim se, neko me vuce.
                   Emadd9
 Gubim se, ceo sam mokar,
                Fsus2
 u svome znoju, nocas,
                   Emadd9
 nocas ja moram da odem...
                         Fsus2
 Da trazim, da pronadjem oprostaj,
                   Emadd9
 zaborav, senke... Nocas,
                Fsus2
 neko je rekao, nocas, ljubav je mrznja.


     C#5       C5
 Kad hodam, ja gledam.
     C#5       C5
 Kad hodam, ja gledam.
     E5
 Kad hodam


Emadd9                Fsus2
 Pamtim, zaboravljam, smejem se,
                        Emadd9
 volis decu, a ne volis ljude,
                 Fsus2
 dosada, navika, trzaj,
                   Emadd9
 budim se, neko me vuce...
                       Fsus2
 Izgrizeni jastuk kraj mene,
                    Emadd9
 tresem se, jako je vruce,
                    Fsus2
 perje se spusta na krevet,

 ne bojim se vise...


     C#5       C5
 Kad hodam, ja gledam.
     C#5       C5
 Kad hodam, ja gledam.
     E5
 Kad hodam


 Tema distorzija:
E--------------------------------------------
H--------------------------------------------
G-0--------------XX---------------------XX---
E-2--------------XX-3----2--------------XX-2-
H-2--/7775553-32-XX-3----2--/7775553-32-XX-2-
G-0--------------XX-1----0--------------XX-0-


Emadd9
 Mislim
                    Fsus2
 na staricu koja se seca,
                   Emadd9
 koja se kaje zbog svega

 sto je izgubila,
 Fsus2
 ona je tuzna i place.

     C#5    C5
 Ja hodam i gledam.
     C#5    C5
 Ja hodam i gledam.
    E5
 Ja hodam