Block Out - Leto Na Adi

Transkripcija: KamenZaPete
Album        : Crno, belo i srebrno (1994)



       RIFF(delay efekat):
e:-||--------------------------------------------------------------
h:-||--------------0-----------------3-(3)-(3)---3-----------------
g:-||--2~(2)-(2)-----2----4/7(\4/7)--0-(0)-(0)-----0----4/7(\4/7)--
D:-||--2~(2)-(2)-2-----2--4/7(\4/7)--0-(0)-(0)-------0--4/7(\4/7)--
A:-||--0~(0)-(0)---------------------2-(2)-(2)-2-------------------
E:-||--------------------------------3-(3)-(3)---------------------

     *note u zagradi su u stvari proizvod delay-a

Intro: RIFF

RIFF
Ne zuri
I onako vise nema mesta u hladu
Uz drvo
Idemo, polako idemo na nase jezero
Na Adu

       Riff na harmonici(kasnije na gitari):
e:-||--------------5-0----------------------------
h:-||-----2----2-3-----3-2-2-3-0~~----------------
g:-||--2-----2------------------------------------
D:-||---------------------------------------------
A:-||---------------------------------------------
E:-||---------------------------------------------

              Asus2
     Ljudi se kupaju
   G6
     Juce se jedan udavio
Asus2
     Nema veze bio je pijan
   G6
     On nije ni shvatio

Nasi slavni pevaci se smenjuju na splavu
Pevaju
U kamere gledaju

Vitke lepotice
Iz ratom zahvacenih podrucja setaju
One se takmice sa nasim mesom


  Asus2        G6
A dan je lep i sunce je
Na zalasku


* ostatak pesme su ta dva akorda razlozena i pod distorzijom, uz tekst:

Mi gledamo
Veselo tapsemo i uzivamo
Ja bi da pozdravim strinu i strica u Nemackoj
Preko satelita
I masemo
Gledaj gore iz aviona nas slikaju
Nista nam ne mogu mocnici
Pevamo
Refren novog hita
Covekolike figure sa velikim sisama

A dan je lep i sunce je
Na zalasku

Kako je samo toplo u plicaku
Svi se smeju
I pisaju

Jedan veliki pozdrav iz Beograda


Asus2: x 0 2 2 0 0
G6   : 3 2 0 0 3 0