Block Out - Manastir

Album        : Godina Sirotinjske Zabave (1996)
Transkripcija: KamenZaPete 


     riff1:
e:-||----------------------------------------------------------
h:-||----------------------------------------------------------
g:-||----------------------------------------------------------
D:-||--5-7-7--5-7-7--5-7-7--5-8-8--5-7-7--5-7-7--5-7-7--5-8-8--
A:-||--3-5-5--3-5-5--3-5-5--3-6-6--3-5-5--3-5-5--3-5-5--3-6-6--
E:-||----------------------------------------------------------
     riff2:
e:-||----------------------
h:-||----------------------
g:-||----------------------
D:-||----------------------
A:-||--4-6-6--4-6-6--4-6-6-
E:-||--2-4-4--2-4-4--2-4-4-
     p.m...................

     B5*
e:-||----------------------------------------
h:-||----------------------------------------
g:-||----------------------------------------
D:-||--8------------------8------------------
A:-||--8--(8)--(7)--------8--(8)--(7)--------
E:-||--6------------(8)---6------------(8)---

     Uvod:
e:-||----------------------------------------------------------
h:-||----------------------------------------------------------
g:-||--3-5-5--3-5-5--3-5-5--3-6-6--3-5-5--3-5-5--3-5-5--3-6-6--
D:-||----------------------------------------------------------
A:-||----------------------------------------------------------
E:-||----------------------------------------------------------

e:-||----------------------------------------------------------\
h:-||---------------------------------------------------------- \
g:-||----------------------------------------------------------\\\2
D:-||--5-7-7--5-7-7--5-7-7--5-8-8--5-7-7--5-7-7--5-7-7--5-8-8--///x
A:-||--3-5-5--3-5-5--3-5-5--3-6-6--3-5-5--3-5-5--3-5-5--3-6-6-- /
E:-||----------------------------------------------------------/


Strofa 1:

riff1
Crtezi i humoreske menjaju mi stil,
moj glas danas odlazi u manastir.
Dobar dan - ja klimam glavom - prolece je hir,
moj glas danas odlazi u manastir.

B5*
Crtezi i humoreske...

Strofa 2:
Plave reke, ptice lete, sloboda i mir,
moj glas danas odlazi u manastir.
Urlam, nemam glas a usta preduboki vir,
moj glas danas odlazi u manastir.

B5*
Plave reke, ptice lete,
D#5
visoko je...


Strofa 3:

D#5 D5                   D#5       D5
    Siva masa se talasa, mozak kao sir,

riff1
moj glas danas odlazi u manastir.

D#5 D5
    Imbecili i debili ogroman je zbir,

riff1
moj glas danas odlazi u manastir.


B5*
Crtezi i humoreske...


H5
Gori more, tope se planine

riff2
od lepote i blizine.

H5
Nemocan sam, to me brine,

riff2
gori more, tope se planine.

C#5      E5        riff1
Umrla je ekologija.