Block Out - Najduzi Je Poslednji Sat

Album        : San koji srecan sanjas sam (1998)
Transkripcija: KamenZaPete


Uvod:
E||--------------2--------0--|----------2-------0-----|
B||--------------------------|---------------------0--|
G||-----------0-----0--------|------------------------|
D||--------2-----------2-----|---------------2--------|
A||-----2--------------------|-------2----------------|
E||--0-----------------------|----0-------------------|

--------------2-------0--|----------2-------0-----|-----------0----------0--|
-------------------------|---------------------0--|--------------3----------|
-----------0-------------|------------------------|-------------------------|
--------2----------2-----|---------------2--------|--------2----------2-----|
-----2-------------------|-------2----------------|-----2-------------------|
--0----------------------|----0-------------------|--0----------------------|

-------0----------0-----|--------------2-------0--|----------2-------0-----|
----------3----------0--|--------------0----------|----------0----------0--|
------------------------|-----------0-------------|------------------------|
----2----------2--------|--------2----------2-----|---------------2--------|
------------------------|-----2-------------------|-------2----------------|
------------------------|--0----------------------|----0-------------------|

--------------2-------0--|----------2-------0-----|--------------2--------0--|
--------------0----------|----------0----------0--|--------------------------|
-----------0-------------|------------------------|-----------0-----0--------|
--------2----------2-----|---------------2--------|--------2-----------2-----|
-----2-------------------|-------2----------------|-----2--------------------|
--0----------------------|----0-------------------|--0-----------------------|

----------2-------0----|-----------0-----------0--|-------0----------------|
-----------------------|--------------3-----------|----------3----------0--|
-----------------------|-----------------0--------|------------------0-----|
---------------2-------|--------2-----------2-----|----2----------2--------|
-------2---------------|-----2--------------------|------------------------|
----0------------------|--0-----------------------|------------------------|

-----------0-------------|-----------------------|-----0-----------------|
--------------3-------2--|----------3------------|--------3-------2------|
-------------------------|-------0---------------|-----------------------|
--------2----------2-----|----2------------------|--2----------2---------|
-----2-------------------|--------------------2--|-----------------------|
--0----------------------|-----------------0-----|-----------------------|

( prostije receno, uvod je improvizacija Em Em7 Em6)



Strofa 1:

Hmadd1     Asus4           G(6)
   Bledis, cekas, slike su brze,
        Dsus2/F#              Em7  Em      Em7    Em
   tvoj maleni ekran sve njih ne   moze da primi.
   Asus4      A         Asus4 Asus4/B
   Najduzi je poslednji sat.


Strofa 2:

Hmadd11        Asus4        G(6)
   Nervozno se trzas, lomis prste
     Dsus2/F#                Em7 Em       Em7    Em
   i bilo bi ti lakse sve da znas da nece biti.
       Dsus2      Dsus2/C#
   Al' mozda se i dogodi...



Bridge 1:

Hmadd11 Asus4 G(6)    Dsus2/F#    Em7  Em  Em7 Em



Strofa 3 (akordi isti kao u Strofi 1):

   Tvoj poraz nije ogroman, a povratak je realan,
   precrtavao ili ne sve svoje zakletve i slike.
   Najduzi je poslednji sat.


Strofa 4 (akordi isti kao u Strofi 2):

   Putevi su predugi, seku se i srescemo se,
   nasmesi se, pokloni se i reci da se kajes.
   A mozda se ne dogodi...


Refren:

   Hmadd11 Asus4 G(6)    Dsus2/F#    Em7  Em  Em7 Em  D Dsus2/C#
   Ja      ne    mogu da pobegnem od tebe.

   Hmadd11 Asus4 G(6)    Dsus2/F#    Em7  Em  Em7 Em
   Ja      ne    mogu da pobegnem od tebe.


Bridge 2:

Em6 Em xputa
G G6 2x
Em6 Em 2x
G G6 Dsus2/F#
Em6 Em 2x
G G6 Dsus2/F#


Strofa 5 (akordi isti kao u Strofi 1):

   Ja nisam bitan lik u tvojoj ver(e)nickoj prici
   i ko je koga stvorio i ko na koga lici...
   Najduzi je poslednji sat.


Strofa 6 (akordi isti kao u Strofi 2):

   Svi mi ovde nekog cekamo
   da nam kaze koga cekamo.
   Pa mozda taj i pogodi...



Refren:

   Hmadd11 Asus4 G(6)    Dsus2/F#    Em7  Em  Em7 Em  D Dsus2/C#
   Ja      ne    mogu da pobegnem od tebe.

   Hmadd11 Asus4 G(6)    Dsus2/F#    Em7  Em  Em7 Em
   Ja      ne    mogu da pobegnem od tebe.



Strofa 7 (akordi isti kao u Strofi 1):

   I uzalud cekas, tvoj prevoz nece doci.
   On je odavno bio ovde, mi se rodili nismo.
   Bio,
   video,
   pobegao.


Strofa 8 (akordi isti kao u Strofi 2):

   I svima je jasno - put zavrsava jamom,
   duboko u nju tonemo, i smrdimo do neba.
   Ni on nece da nas izvadi...



Refren:

   Hmadd11 Asus4 G(6)    Dsus2/F#    Em7  Em  Em7 Em  D Dsus2/C#
   Ja      ne    mogu da pobegnem od tebe.

   Hmadd11 Asus4 G(6)    Dsus2/F#    Em7  Em  Em7 Em
   Ja      ne    mogu da pobegnem od tebe.


Kraj:

isti kao Bridge 2




korisceni hvatovi:

========================
Hmadd11   : x 2 4 4 3 0
Asus4     : x 0 2 2 3 0
G(6)      : 3 2 0 0 3(0)
Dsus2/F#  : 2 x 0 2 3 0
Em7       : 0 2 2 0 3(0)
Em        : 0 2 2 0 0 0
Dsus2     : x 5 x 2 3 0
Dsus2/C#  : x 4 x 2 3 0
A         : x 0 2 2 2 0
Asus4/B   : x 1 2 2 3(0)
D         : x x 0 2 3 2
=========================