Block Out - Nedostupna Polja

Transkripcija: Milos Mladenovic Betmen
Home         : http://www.yutabs.f2s.com


  Uvod:
  A5                             B5 C#5                        B5
E|----------------|----------------|----------------|----------------|
B|----------------|----------------|----------------|----------------|
G|----------------|----------------|----------------|----------------|
D|----------------|----------------|----------------|----------------|
A|7-7-7-7-7-7-7-7-|7-7-7-7-7-7-7-9-|1111111111111111|11111111119-9-9-|
E|5-5-5-5-5-5-5-5-|5-5-5-5-5-5-5-7-|9-9-9-9-9-9-9-9-|9-9-9-9-9-7-7-7-|

    A5                              G#5                        F#5
E|----------------|----------------|----------------|----------------|
B|----------------|----------------|----------------|----------------|
G|----------------|----------------|----------------|----------------|
D|----------------|----------------|----------------|----------------|
A|9-7-7-7-7-7-7-7-|7-7-7-7-7-7-7-7-|6-6-6-6-6-6-6-6-|6-6-6-6-6-4-4-4-|
E|7-5-5-5-5-5-5-5-|5-5-5-5-5-5-5-5-|4-4-4-4-4-4-4-4-|4-4-4-4-4-2-2-2-|

    A5                              C#5                        B5
E|----------------|----------------|----------------|----------------|
B|----------------|----------------|----------------|----------------|
G|----------------|----------------|----------------|----------------|
D|----------------|----------------|----------------|----------------|
A|4-0-0-0-0-0-0-0-|0-0-0-0-0-0-0-0-|1111111111111111|11111111119-9-9-|
E|2-0-0-0-0-0-0-0-|0-0-0-0-0-0-0-0-|9-9-9-9-9-9-9-9-|9-9-9-9-9-7-7-7-|

    A5                              G#5
E|----------------|----------------|----------------|----------------|
B|----------------|----------------|----------------|----------------|
G|----------------|----------------|----------------|----------------|
D|----------------|----------------|----------------|----------------|
A|9-7-7-7-7-7-7-7-|7-7-7-7-7-7-7-7-|6-6-6-6-6-6-6-6-|6---------------|
E|7-5-5-5-5-5-5-5-|5-5-5-5-5-5-5-5-|4-4-4-4-4-4-4-4-|4---------------|



  C#5     A5  G#5  A5  G#5 A5  G#5  C#5     A5  G#5  A5  G#5
E|----------------|----------------|----------------|--------xx-xxxx-|
B|----------------|----------------|----------------|--------xx-xxxx-|
G|----------------|----------------|----------------|--------xx-xxxx-|
D|6-6-6-----------|----------------|6-6-6-----------|--------xx-xxxx-|
A|4-4-4---7---6---|7---6---7---6---|4-4-4---7---6---|7---6---xx-xxxx-|
E|--------5---4---|5---4---5---4---|--------5---4---|5---4---xx-xxxx-|
                                 ponoviti 5 puta

  C#5     A5  G#5  A5  G#5 A5  G#5  C#5     A5  G#5  A5  G#5
E|----------------|----------------|----------------|----------------|
B|----------------|----------------|----------------|----------------|
G|----------------|----------------|----------------|----------------|
D|6-6-6-----------|----------------|6-6-6-----------|----------------|
A|4-4-4---7---6---|7---6---7---6---|4-4-4---7---6---|7---6-----------|
E|--------5---4---|5---4---5---4---|--------5---4---|5---4-----------|


  Strofa:
  Asus2                             C#sus2      C#7/sus2
E|0----0-0-0--0---|-0-0-0----0--0--|4----4-4-4--4---|-4-4-4-4-4-4-4--|
B|0----0-0-0--0---|-0-0-0----0--0--|4----4-4-4--4---|-4-4-4-4-4-4-4--|
G|2----2-2-2--2---|-2-2-2----2--2/-|6----6-6-6--4---|-4-4-4-4-4-4-4--|
D|2------2----2---|---2------2--2/-|6------6----6---|---6---6---6----|
A|0-----------0---|----------0-----|4-----------4---|----------------|
E|----------------|----------------|----------------|----------------|


  Prelaz I:
  Asus2                             C#sus2      C#7/sus2
E|----------------|----------------|----------------|----------------|
B|----------------|----------------|----------------|----------------|
G|------------2---|----------------|----------------|----------------|
D|------2---------|------------x-x-|------6-----5---|----------------|
A|0---------------|------------x-x-|4---------------|----------------|
E|----------------|----------------|----------------|----------------|


  Prelaz II:
  Dsus2                             D7/sus2
E|5----5-5-5--5---|-5-5-5----5--5--|5----5-5-5--5---|-5-5-5-----5-5--|
B|5----5-5-5--5---|-5-5-5----5--5--|5----5-5-5--5---|-5-5-5-----5-5--|
G|7----7-7-7--7---|-7-7-7----7--7--|5----5-5-5--5---|-5-5-5-----5-5--|
D|7------7----7---|---7------7--7--|7------7----7---|---7-------7-7--|
A|5-----------5---|----------5-----|5-----------5---|-----------5----|
E|----------------|----------------|----------------|----------------|


  Korisceni akordi:
A5       - 57xxxx
         - 00xxxx
B5       - 79xxxx
C#5      - 9 11 x x x x
         - x46xxx
G#5      - 46xxxx
F#5      - 24xxxx
Asus2    - x02200
C#sus2   - x46644
C#7/sus2 - x46444
Dsus2    - x57755
D7/sus2  - x57555


Moja zena spava kraj mene
ona sanja, ona moze da misli
cim se probudi nesto smera
kud da krenem, triput ura
za bombardera; iznad mene...

Iznad mene tudja je volja
hocu da skocim to su nedostupna polja
visine, sirine
koliko hoces tebe ne treba da brine
ja ne plovim...

Ja ne plovim, danas ne lovim...