Block Out - Neki Moji Drugovi

Transkripcija: Milan Pavlovic (paparaco@EUnet.yu)
Home         : http://www.yutabs.f2s.com

  Uvod: Asus2, C9

  Strofa:
  Asus2            C9
E|----------------|------3---------|
H|--------0-------|----------3-----|
G|------2---2-----|----0-------0---|
D|----2-------2---|--2-----------2-|
A|0-------------3-|----------------|
E|----------------|----------------|

  Tema:
  Asus2            C9               Asus2            C9
E|----------------|----------------|----------------|----------------|
H|----------------|----------------|----------------|----------------|
G|----------------|----------------|----------------|----------------|
D|----7-7-7-5-----|----------------|----7-7-7-5-----|----------------|
A|0-----------7-3-|--3-5-3---3-5-0-|------------7-3-|--3-5-3-5b6r5-3-|
E|----------------|----------------|----------------|----------------|

  Prelaz 1:
  A     G          H     Fis        F                F
E|----------------|----------------|----------------|----------------|
H|----------------|----------------|----------------|----------------|
G|----------------|----------------|----------------|----------------|
D|2---------------|4---------------|----------------|----------------|
A|0-----5---------|2-----4---------|----3-----3-----|3-----3---------|
E|------3---------|------2---------|----1-----1-----|1-----1---------|

  A     G          H     Fis        F                F
E|----------------|----------------|----------------|----------------|
H|----------------|----------------|----------------|----------------|
G|----------------|----------------|----------------|----------------|
D|2---------------|4---------------|----------------|----------------|
A|0-----5---------|2-----4---------|----3-----3-----|3-------1-3-1-0-|
E|------3---------|------2---------|----1-----1-----|1---------------|

  Refren:
  F                F                D                D
E|----------------|----------------|----------------|----------------|
H|----------------|----------------|----------------|----------------|
G|----------------|----------------|----------------|----------------|
D|----------------|----------------|X-X-7---X-7---X-|7---X-7---X-7---|
A|X-X-3---X-3---X-|3---X-3---X-3---|X-X-5---X-5---X-|5---X-5---X-5---|
E|X-X-1---X-1---X-|1---X-1---X-1---|----------------|----------------|
  A ja, jos uvek prljam                 gradske ulice

  H             B  B
E|----------------|----------------|
H|----------------|----------------|
G|----------------|----------------|
D|4---4-4-4-4-4-3-|--3-3-3---------|
A|2---2-2-2-2-2-1-|--1-1-1-1-3-1-0-|
E|----------------|----------------|
       pitaj me kako mi je

  Prelaz 2:
  F                F
E|----------------|----------------|
H|----------------|----------------|
G|----------------|----------------|
D|----3-----2-----|----------------|
A|----------------|3-----2-----3---|
E|1---------------|----------------|

  Prelaz 3:
E|----------------|----------------|----------------|----------------|
H|----------------|----------------|----------------|----------------|
G|----------------|----------------|----------------|----------------|
D|6---6-----------|6---------------|6---6-----------|6---------------|
A|4---4-----------|4---------------|4---4-----------|4---------------|
E|----------------|----------------|----------------|----------------|

E|----------------|----------------|----------------|----------------|
H|----------------|----------------|----------------|----------------|
G|----------------|----------------|----------------|----------------|
D|7---7-----------|7---------------|7---7-----------|7-------7-9-7---|
A|5---5-----------|5---------------|5---5-----------|5-------5-7-5---|
E|----------------|----------------|----------------|----------------|

Neki moji drugovi su uvek imali love
Neki moji drugovi su uvek imali sve
Oni koji nikad nisu, nikad nisu sanjali snove
Oni mi danas kazu da cu ostati vecno mlad

Neki moji drugovi su zauvek otisli odavde
Neki moji drugovi su otisli da zivot traze
Neki moji drugovi su otisli na neko vreme
Otisli na neko vreme da se nikad ne vrate

Neki moji drugovi su odlucili da postanu tate
Neki moji drugovi su imali seljacke svadbe
Neki moji drugovi su shvatili da mogu bez njih
Neki moji drugovi su neki moji drugovi

A ja jos uvek prljam gradske ulice
pitaj me kako mi je

  Korisceni akordi:
Asus2-X02200
C9   -X32033


***VERZIJA 2***
Transkripcija: Ivan Vasic (ivasic@cent.co.yu)
Home         : http://www.tablature.co.yu



Intro:         Riff 1 
E---0-----0--||-----------------------------------------||
B---0-----3--||--------------0-----------------3--------||
G---2-----0--||--------2--------2--------0--------0-----||
D---2-----2--||-----2-----2--------2--------2--------2--||
A---0-----3--||--0--------------------3-----------------||
E------------||-----------------------------------------||

I evo onaj cuveni Riff:

Riff 2
E-----------------------------------|-----------------------------------|
B-----------------------------------|-----------------------------------|
G-----------------------------------|-----------------------------------|
D--------7-7-7-5--------------------|-------7-7-7-5---------------------|
A---0-0-----------7---3-3-5---3-3-5-|--0-0-----------7---3---3-5-3-5^r-3|
E-----------------------------------|-----------------------------------|

Za prvu strofu svira se Riff 1

Kasnije, onaj deo (nazovi refren) ide ovako :
 
  F                   D              H         B          BHB
A ja, jos uvek prljam  gradske ulice, pitaj me kako mi je

Opet Riff 2 koji se nadoveze na ovo i tako "till end" ...