Block Out - Obolenjce

Album        : ZaOvdeIliZaPoneti [2001]
Transkripcija: KamenZaPete
               Johnny (johnny47ns@yahoo.com)


Uvod/Strofa:

   A#dim Hdim Adim


A#dim   : x x 2 3 2 3
Hdim    : x x 3 4 3 4
Adim    : x x 1 2 1 2



     simpaticna bas linija(za gitaru):
g:|---------------------------------
D:|---------------------------------
A:|------5-4----8-------------------
E:|-/6-5-----/6----3-4--------------


Mozda ja stvarno imam oboljenjce.
Ma, nista strasno, samo se malo smejem.
Ja i moj televizor u stanu,
juce je bio na ekranu
jedan sto ima pare za hranu.

Ponekad se suncam na terasi.
I herojski hrabro prkosim ozonskoj rupi.
Pa ja sam pobedio i NATO pakt,
odbranio svoj kontejner i saht
- civilni objekat.

Redovno njupnem lekic za smirenjce,
i moram da kazem - osecam se bolje.
Nisam gladan, nije mi hladno,
mozda je malkice dosadno, al' jebiga,
ne moze sve, s tabletom il' dve.

A mozda ja stvarno imam oboljenjce.
Moj televizor je poceo da bunca.
Retko ga zalivam, fali mu sunca...
a i vestacko dubre.

Oboljenjce,
tako mu tepam,
jer od njega cu da krepam.


     outro(gitara):
e:-||--10--8-----------------
h:-||--------10--8-9-10--10--
g:-||------------------------
D:-||------------------------
A:-||------------------------
E:-||------------------------
     *u pozadini idu akordi za strofu