Block Out - Osam I Trideset

Transkripcija: Milan Pavlovic (paparaco@EUnet.yu)
Home         : http://www.yutabs.f2s.com


Napomena: originalni akordi su za polustepen nizi

  Tema:
  Am    Asus2      Am    Asus2      C     C9         G4    G
E|----------------|----------------|----------------|----------------|
H|1--1--0---------|1--1--0---------|1--1--3---------|1--1--0---------|
G|2--2--2---------|2--2--2---------|0--0--0---------|0--0--0---------|
D|2--2--2---------|2--2--2---------|2--2--2---------|0--0--0---------|
A|0--0--0---------|0--0--0---------|3--3--3---------|2--2--2---------|
E|----------------|----------------|----------------|3--3--3---------|

  Refren:
  Am    Asus2      Am    Asus2      Cism  Cis9       C
E|----------------|----------------|----------------|------3---------|
H|1--1--0---------|1--1--0---------|5--5--4---------|5--5--5---------|
G|2--2--2---------|2--2--2---------|6--6--6---------|5--5--5---------|
D|2--2--2---------|2--2--2---------|6--6--6---------|5--5--5---------|
A|0--0--0---------|0--0--0---------|4--4--4---------|3--3--3---------|
E|----------------|----------------|----------------|----------------|
                                                              On nije
  Am               Am               D                G
E|0--0--0---------|0--0--0---------|2--2--2---------|3--3--3---------|
H|1--1--1---------|1--1--1---------|3--3--3---------|3--3--3---------|
G|2--2--2---------|2--2--2---------|2--2--2---------|0--0--0---------|
D|2--2--2---------|2--2--2---------|0--0--0---------|0--0--0---------|
A|0--0--0---------|0--0--0---------|----------------|2--2--2---------|
E|----------------|----------------|----------------|3--3--2---------|
  ziveo kao kralj...           ...u osami...                  on nije
  Am               Am               C     C9         G4    G
E|0--0--0---------|0--0--0---------|----------------|----------------|
H|1--1--1---------|1--1--1---------|1--1--3---------|1--1--0---------|
G|2--2--2---------|2--2--2---------|0--0--0---------|0--0--0---------|
D|2--2--2---------|2--2--2---------|2--2--2---------|0--0--0---------|
A|0--0--0---------|0--0--0---------|3--3--3---------|2--2--2---------|
E|----------------|----------------|----------------|3--3--3---------|
  ziveo kao kralj...           ...u osam i,        u osam i trideset


Zatvori oci sada zadnji put
I seti se
Sta je sve proslo dok si cutala
Pronadji me

Ulice nema s tvojim imenom
Gde je vrt secanja
Mesta su sve bez rezervacija
U osam i trideset

On zna da crveno bledi vremenom
Proci ce
Mladost je neka sasvim druga stvar
Ne poznaje

On dobro zna kad boli istina
Ostrva crna su
I dobro pamti gde te poslao
U osam i trideset

Slomljeni krst u mutnoj vodi
Pamti sve
Gvozdeni zvuk u gluvoj sobi
Odlaze

Odlazi noc vampiri beze
Zauvek
Nikada vise doci nece
U osam i trideset

On nije ziveo kao kralj
U osami
On nije ziveo kao kralj
U osam i trideset

  Korisceni akordi:
Am   -X0221X
Asus2-X0220X
C    -X3201X
C9   -X3203X
G4   -32001X
G    -32000X