Block Out - Rodjendanska Pesma

Album        : Crno, belo i srebrno (1994)
Transkripcija: KamenZaPete
Info:          note u zagradama svira bas


Riff1:
         G#m H       G#m  H
e:-||-------------------------------
h:-||---0-0--------0h2p0------------
g:-||-------------------------------
D:-||-------------------------------
A:-||--------(2)----------(2)-------
E:-||----(4)----------(4)-----------


Uvod: Riff1


Strofa:

Riff1
Kad picke pokradu vence
Kazi mi ja ne razumem

A6add9              Em6add9
Da l' je to greh il realnost


Pre-Strofe: Riff1


Strofa:

Proda mi neciju tugu
Pa je ukrade ko moju
Ja samo cutim i placem


Riff2:
       G#m       H
e:-||---------4---------7-------
h:-||---------4---------7-------
g:-||-------4---------8---------
D:-||-----6---------9-----------
A:-||---------------------------
E:-||--(4)-------(7)------------

Riff3:
        A        F#m
e:-||---5---------9-------------
h:-||---5--------10-------------
g:-||---6--------11-------------
D:-||---------------------------
A:-||---------------------------
E:-||---------------------------


Pre-Strofe: Riff2 2x
            Riff1 x puta
            Riff3
            Riff1 4x


Strofa:

Uplati groblje na vreme
U zemlji u kojoj zivis
Ne smes da umres bez para


Pre-Strofe: Riff1


Strofa:

A ako umrem pre tebe
Okuj mi cvece u lance
Nek seku, neka se muce


Riff3:

      G#5    H5    C#5D5C#5
e:-||------------------------
h:-||------------------------
g:-||------------------------
D:-||--6--66--9--xx-11/12/11-
A:-||--6--66--9--xx-11/12/11-
E:-||--4--44--7--xx--9/10/9--

Riff4:
      C#5D5           D5          D5
e:-||---------------------------------------
h:-||---------------------------------------
g:-||---------------------------------------
D:-||--11/12-12-12-xx-12-12-12-xx-12-12-12--
A:-||--11/12-12-12-xx-12-12-12-xx-12-12-12--
E:-||---9/10-10-10-xx-10-10-10-xx-10-10-10--

Riff5:
      F#5G#5      G#5    G#5 H5
e:-||-----------------------------
h:-||-----------------------------
g:-||-----------------------------
D:-||--4/6-6-6-xx-6-6-xx-6-6-9-9--
A:-||--4/6-6-6-xx-6-6-xx-6-6-9-9--
E:-||--2/4-4-4-xx-4-4-xx-4-4-7-7--


Bridge 1: Riff2 2x
          Riff3 x puta
          Riff4 x puta
          Riff5 x puta
          G#5
          Riff1


Strofa:

Ljubav i smrt isto bole
Zivot je izmedju negde
To znaju oni sto vole


Pre-Strofe: Riff1


Strofa:

Predivna zeno iz senke
Polako prolazi vreme
Starim i cuvam ti sebe


Refren(?):

G#m(II)   Hsus2 G#5
Srecan ti rodjendan
Srecan mi rodjendan


Bridge2: Riff3 4x
         Riff1

      G#m(II)
Da li lazes il' se igras
Ili ti je sad svejedno
Nije bitan poklon, ukras
Zene stvorene za crno

    A6add9
Ti okreni kljuc unazad
Ne daj da ti kradu vence
Daj mi dokaz da postojis
Bilo ovde bilo tamo

     G#m(II)
Moji snovi nisu moji
Ti ih stvaras, kidas, lomis
Gledao si kako placem
Dok ti telo zemljom solim

    A6add9
Ti si prvi u mom svetu
Zuti vosak sto se topi
Neki put mi krades vreme
I ja spavam se do cetiri

     G#m(II)
Sve to vreme s tobom pricam
Stare price iz dvorista
Sve je isto, sve je tiho
Ko u snu sam u snovima


Riff1
Ko u snu sam u snovima
Ko u snu sam u snovima

Kraj: Riff1


Korisceni hvatovi:
===========================
A        x  x  x  6  5  5
A6add9   2  4  4  2  0  x
H        7  9  9  8  7  7
Hsus2    x  2  4  4  0  x
H5       7  9  9  x  x  x
C#5      9 11 11  x  x  x
D5      10 12 12  x  x  x
Em6add9  x  x  4  x  0  0
F#m      x  x  x 11 10  9
F#5      2  4  4  x  x  x
G#m      4  6  6  4  4  4
G#m(II)  4  6  6  4  0  x
G#5      4  6  6  x  x  x
===========================