Block Out - Svako Putuje Za Sebe

Transkripcija: krele@gitara.co.yu
Album        : Za ovde ili za poneti


ovo je moj prvi samostalni rad
sve cestitke na krele@gitara.co.yu
ako zelite da posaljete novac, poslacu vam broj ziro racuna, samo se
javite
Dm*                               C*
 |   |   |   |    |   |   |   |    |   |   |   |    |   |   |   |    
|------1-0-----1-|------1-0-------|------0-0-----0-|------0-0-----0-|
|----3-----3-----|----3-----3---3-|----1-----1-----|----1-----1-----|
|--2---------2---|--2---------2---|--0---------0---|--0---------0---|
|0---------------|0---------------|----------------|----------------|
|----------------|----------------|3---------------|3---------------|
|----------------|----------------|----------------|----------------|

Gm7add13*                         Fmaj7*           A7*
 |   |   |   |    |   |   |   |    |   |   |   |    |   |   |   |    
|----------------|----------------|------0---------|------0---------|
|------5-----3---|------5-----3---|----1---1-------|--------2-------|
|----3---3-------|--------3-------|--2-------2-----|----0-----------|
|--3-------3-----|--3-------3-----|3-----------3---|2---------------|
|5---------------|5---------------|----------------|----------------|
|----------------|----------------|----------------|----------------|

Dm*
Citav dan pored prozora,
C*
gleda vetar mlad.
Dm*                      C*
Ceka rec koja samo njemu znaci.
Gm7add13*
I njen korak lak k'o san,
         Fmaj7*          A7*
isto k'o "volim te" zvuci "dobar dan".

Kvaka skripi pod prstima.
To je srecan zvuk.
Njena kosa je crvena kao sveza krv.
On svoje lice pretvara u osmeh koji jede bol.

ref:
Dm*           C*
"Pomozi mi da razumem,
Gm7add13*             Fmaj7*     A7*
koliko treba snage da pogledam u smrt.
Pomozi mi da razumem,
koliko treba snage da se pogledam."

Pogled tuzan ga ubija,
nemoc jos vise boli.
Za jos jedan sat bezbrizan ako treba dace sve,
a nema snagu ni za tren,
svako putuje za sebe.

Rekvijem nije muzika,
dugo kipi ta zver u njemu.
Ako je stvarno voli reci ce to deset puta.
"I... ja... obecavam...
necu jos umreti zbog tebe".