Block Out - Sve Je Pod Kontrolom

Album        : ZaOvdeIliZaPoneti [2001]
Transkripcija: Johnny (johnny47ns@yahoo.com)



E|-----7-7-7-5----|-----------------------|-----
H|-----7-7-7-5----|-----------------------|-----
G|----------------|----12-10---12-10------|-----
D|-0--------------|----------11------11---|0...-
A|----------------|---------------------10|-----
E|----------------|9----------------------|-----


 Ispod planine
 curi voda ponornica
 Bljuzga i blatiste
 vise zaba od Kineza

 Zastita od poplave
 stize u cetvrtak mozda
 Nestao je potocic
 tiho tece ispred kuce


   Dsus2      D#/5-
E-----5---5-----------------
H-----5-x-5---8--8--8--8----
G-----7-x-7---8--8--8--8-8--
D-----7---7---7--7--7--7-7--  X4
A--5----------6--6--6--6-6--
E---------------------------

 
 Vode podzemne
 obala je razudjena
 Trista ostrva
 viri zito kao trska

 Ljudi veslaju
 Od kupatila do sobe
 Ptice pevaju
 One se u stvari mrze




  A7sus2         Asus2add13     Asus2
E--3---------------2------------0-----
H--0---------------0------------0-------
G--2---------------2------------2--------
D--2---------------2------------2------
A--0---------------0------------0--------
E--------------------------------------
     Sve je pod kontrolom, trljamo se alkoholom


 A7sus2         Asus2add13     Asus2
      Sve je pod kontrolom, trljamo se alkoholom
 Nema mesta panici kazu gnjurci u vatrogasnoj stanici

 A7sus2         Asus2add13     Asus2
      Sve je pod kontrolom, bavimo se rokenrolom
 Sviramo po stalama i po ciganmalama
                                          Budalama

 
 Lije, ne staje
 septicke se jame ciste
 Rano ustajem
 sirim mrezu ispred kuce

 Svinje plivaju
 i na drvecu su macke
 Prosle godine
 tu je negde bio put


      D   D#/5+

 
 Ptice pevaju
 one se u stvari mrze
 Kise padaju
 posle kise kisa opet

 Mestimicno je
 delimicno malo manje
 Problem sudbine
 drugo agregatno stanje



 Sve je pod kontrolom, trljamo se alkoholom
 Nema mesta panici kazu gnjurci u vatrogasnoj stanici

 Sve je pod kontrolom, bavimo se rokenrolom
 Sviramo po stalama i po ciganmalama
 Budalama


-------------------------------------------------------
Aleksandar Balac - bas, buckanje, lupkanje
Nikola Vranjkovic - gitare, lupkanje, psst, plop, vokal, plop, buc, mobilni solo
Dejan Lalic - solo mobilni - Ptice pevaju
Mengele - solo mobilni - Foolin' I & I
Dragoljub Markovic - semplovi
Magarce, dodi veceras u studio - poruka sa Blekove telefonske sekretarice
Nikola Vranjkovic - miks