Block Out - Tata Brada

Transkripcija: Johnny (johnny47ns@yahoo.com)
Album        : Ako imas s kim i gde [2004]


 Riff/Tema:
  A5                         A5
E---------------------------------------------
H---------------------------------------------
G---------------------------------------0-----
D-------------2----------------------------2---
A----3---5---------------------3---5---------
E-/5---5----5---------------/5---5----5------
   let ring
   
   E5                              A#5
E-----------------------------------------------------------------
H-----------------------------------------------------------------
G-----------------------------------------------------------------
D--3-2---3-2---3-2---3-2---3-2---2-3-2---3-2---3-2---3-2---3-2---2
A------2-----2-----2-----2-----2-------1-----1-----1-----1-----1--
E-----------------------------------------------------------------
   palm mute


 Strofa:
E-----------------------
H-10~---11~---12~---13~-
G-9~----10~---11~---12~-
D-----------------------
A-----------------------
E-----------------------
  A5                         G#5
   On ustaje potpuno svestan situacije.
         A5                G#5
 Neko je ubio coveka usred bela dana, ispred kuce.
A5                       G#5
 Tata-brada je vrteo olovke i izneo mu dnevni red,
A5                 G#5
 Ulazi u busne cipele i izlazi na sneg i led.


-TEMA-

A5                         G#5
 Pre jutra, u redu, cekace sest da potrosi svoju bedu.
A5                        G#5
 Cuti i stenje, hladna su jutra u decembru,
        A5                         G#5
 Kupuje sve, iznosi nekakve velike kese i dzakove,
        A5                         G#5
 Kupuje sve, ne veruje nikome, al' postuje moc navike.


 (akordi su na kraju)

Em   Emadd9 Em    Dmadd9
 I zna,        da ne moze ovako dugo

Em   Emadd9 Em    Dmadd9
 I zna         da nema drugog izlaza
Em   Emadd9 Em    Dmadd9
 I zna         da nije on taj, nije on taj
Em   Emadd9 Em    Dmadd9
 I zna         A  voli ga... voli ga

 -TEMA-


A5                             G#5
 Drzi pistolj u ruci, a ne zna sta ce s njim, zna ko je kriv
    A5                        G#5
 Za sve, i to glasno kaze, opametio se, srecan je.
A5                         G#5
 Kuci ga ceka topla supa i ciste carape,
         A5                              
 Prvo ce da se kupa, a posle ce hranu da pojede.


  A5 (klavijature)


A5                   G#5
 On sedi i cuva neku razjebanu zgradu.
          A5                  G#5
 Gleda me kao da sam mu bas ja pobio decu.
A5                       G#5
 A ja samo lutam po svom unistenom gradu
           A5                         G#5
 Besan sam isto kao i on, al' nije to isti bes.

Dmadd9
 Neko me zove,
Em(2)
 neko me trazi,
Dmadd9
 nekome trebam
Em(2)
 a ne vidim ga.
Dmadd9
 Spokojno spavaj,
Em(2)
 ja drhtim na strazi,
Dmadd9
 slobodno rucaj,
        A5 (TEMA)
 ja sam smrtni slucaj.


 -TEMA-


Em   Emadd9 Em    Dmadd9
 I zna,        da ne moze ovako dugo

Em   Emadd9 Em    Dmadd9
 I zna         da nema drugog izlaza
Em   Emadd9 Em    Dmadd9
 I zna         da nije on taj, nije on taj
Em   Emadd9 Em    Dmadd9
 I zna         A  voli ga... voli ga
A
 Voli ga


 -TEMA-


 Emadd9 Dmadd9  Em(2)
E--2------0-------0--
H--0------3-------5--
G--0------2-------4--
D--2------3-------5--
A--2-----(5)-----(7)-
E--0-----------------