Block Out - Tezak Slucaj Pakla

Transkripcija: Milan Pavlovic - paparaco@EUnet.yu


  Tema:
E|----------------|----------------|----------------|----------------|
H|----------------|----------------|----------------|----------------|
G|2-------2-------|----------------|----------------|----------------|
D|2-----2-----2---|0-----2-0-------|0-----2-0-------|0-0-0-0-0-------|
A|0---------------|0---------------|0---------------|2---------3-2---|
E|----------------|1---------------|2---------------|3-------------3-|


  Strofa:
Asus2 Fmaj7   F#7sus4             Fmaj7
Mozak miruje, al' ispod mora tece vreli kamen.
Grob podriguje, prozdrace mi kosti ako stanem.
Istetovirani strah na tvojim obrazima jeca, ti si samo njegov podstanar.
Smrtno ozbiljan, bez oca i bez prijatelja.

Prazne godine, oko tebe tuzno lete.
Sta ces ti sa njima i sta ce one s tobom takvim?
Ti si revidirao stav sto pedeset puta cas si rodjen kao musko,
Cas ko zensko, koga je to briga.
Sam znas, rodjen si ko picka.


  Tema (heavy):
E|----------------|----------------|----------------|----------------|-----
H|----------------|----------------|----------------|----------------|-----
G|2-------2-------|--------2-------|--------2-------|----------------|-----
D|2-----------2---|--------2---2---|--------2---2---|----------------|-----
A|0---------------|----------------|----------------|2-2-2-2-2-2-2-2-|2/4-0
E|----------------|1---------------|2---------------|3-3-3-3-3-3-3-3-|3/5--


Gde je granica? Ja nisam siguran ni da postoji.
Sta je cilj? Ili trcimo u krug bez cilja.
Put od tebe do mene, sa hiljadu rupa, ko Kumodraska ulica.
Nemam vremena, da cekam da se ubijes.

  Refren:
Em7        Dm7
Slomi me, ja necu inat tvoj zivotom da platim.
Skloni me, eto nisam uspeo da shvatim.
Ubij me, ti to mozes da uradis sa svakim.
F#7add11
Ako sve vidi, sto se pravi blesav,
Fmaj7
Sto ne otera sva govna u nebesa.

(tema)

Zadah osvete kruzi iznad moje glave.
Zar da ubijem, da se prestrojim u tvoje pleme?
Ljudi gutaju suze, zvacu sopstvene zube,
Lije krv sa krova ruske crkve.
Tezak slucaj pakla, tesko da ima ista strasnije.

(tema - heavy)

Budi me, pre no sto pozelim da umrem u snu.
Ubij me, svima za primer raskomadaj moj trup.
Slomi me, vidim tvoj strah, to niko ne sme da zna.
Ako sve vidi sto se pravi blesav,
Sto ne otera sva govna u nebesa.

(tema)


  Korisceni akordi:
Asus4   - X02200
Fmaj7   - X33210
F#7sus4 - X44400
Em7     - X79787
Dm7     - X57565
F#7add11- 244300


Transkripcija: Milan Pavlovic
e-mail: paparaco@EUnet.yu