Block Out - Vezi Me

Transkripcija: Milan Pavlovic (paparaco@EUnet.yu)
Home         : http://www.yutabs.f2s.com


  Uvod:
E|----------------|----------------|----0-----------|----------------|
H|----5-------5---|----5-------5---|------1---------|----------------|
G|--4---6---4---6-|--4---6---4-----|--2-------------|----------------|
D|7---------------|----------------|3---------------|----------------|
A|----------------|----------------|----------------|----------------|
E|----------------|----------------|----------------|----------------|

  Strofa:
A      Fmaj     G6
Vezi me kanapom koji vucem
Vezi me za bolje sutra lose juce
Vezi me i ja cu ljubav da ti dam

  {Ponovi 2x uvod sa pratnjom A, Fmaj}

Vezi me ne daj da pobegnem
Vezi me sta mogu vode me
Vezi me i ja cu ljubav da ti dam

  Kraj:
E|----------------|------0-2-------|
H|3---3-1-0-------|3---------------|
G|2-----------2---|2---------------|
D|0---------------|0---------------|
A|----------------|----------------|
E|----------------|----------------|

  Korisceni akordi:
A   :X77650
Fmaj:X33210
G6  :X55430

***VERZIJA 2***
Transkripcija: Ivan Vasic (ivasic@cent.co.yu)
Home         : http://www.tablature.co.yu


Intro...                
E---------0--------0--------0--------0--|--------0-----|
B------------0--2-----0--2-----0--2-----|-----------1--|
G---------------------------------------|-----2--------|
D------2--------------------------------|--3-----------|
A---0-----------------------------------|--------------|
E---------------------------------------|--------------|
                                      

...then this chords:

x02200  and   xx3210   and  xx5430