Block Out - Zvezdane Staze

Transkripcija: Johnny (johnny47ns@yahoo.com)
Album        : San Koji Srecan Sanjas Sam [1998]


RIFF:
  B5    A5                    B5    A5
E---------------------------------------------------------
H---------------------------------------------------------
G-3-3-3-2---------------------3-3-3-2---------------------
D-3-3-3-2---------------------3-3-3-2---------------------
A-1-1-1-0-1p0-1p0-1p0-1p0-1p0-1-1-1-0-1p0-1p0-1p0-1h3p1p0-
E---------------------------------------------------------


B5 A5
    Laganim tempom proces truljenja hoda.
B5 A5
    Hrabri heroji preko leseva gaze
    D5       C#5
    Zvezdane staze.
    D5       C#5
    Zvezdane staze.
    B5         A5 (RIFF)
    Zvezdane...

B5 A5
    Milina pogledati vesela lica,
B5 A5
    Lutaju psi, a nigde sintera nema.
    D5     C#5
    Raspad sistema.
    D5   C#5  D5  C#5
    Raspad SISTEMA!


RIFF PRED REFREN:
  B5    A5                    B5    A5
E---------------------------------------------------------
H---------------------------------------------------------
G-3-3-3-2---------------------3-3-3-2---------------------
D-3-3-3-2---------------------3-3-3-2---------------------
A-1-1-1-0-1p0-1p0-1p0-1p0-1p0-1-1-1-0-1p0-1p0-1p0-3h5p3p2-
E---------------------------------------------------------

  C5 H5
       Da li je jebeno moguce?!
  C5 H5
       Da li je jebeno moguce?!
  C5 H5
       Da li je jebeno moguce?!
  C5 H5                        B5 A5
       Da li je jebeno moguce?!

B5 A5
    Mizantrop cuti, nema nista da kaze,
B5 A5
    Satira umire u bedi i jadu
    D5      C#5
    Potpuni stranac
      D5       C#5
    u rodjenom gradu.
    B5      A5
    Potpuni stranac...


B5 A5
    Samo se mrtav ovde ne plasi nikog,
B5 A5
    ali se ne seca ni imena svoga.
    D5        C#5
    S verom u koga?
    D5        C#5
    S verom u koga?
    B5      A5
    S verom u...


  C5 H5
       Da li je jebeno moguce?!
  C5 H5
       Da li je jebeno moguce?!
  C5 H5
       Da li je jebeno moguce?!
  C5 H5
       Da li je jebeno moguce?!
  C5 H5
       Da li je jebeno moguce?!
  C5 H5                        B5 A5
       Da li je jebeno moguce?!

   solo klavijature


B5 A5
    U rezervatu, ali ne blizu kraja.
B5 A5
    Kuje se plan za vaskrs. Simbol se ljubi.
    D5       C#5
    Umri il' ubi.
    D5       C#5
    Umri il' ubi.
    B5     A5
    Umri...


B5 A5
    Sirenje optimizma tece po planu,
B5 A5
    Zene su trudne - bice svezih vojnika.
    D5       C#5
    Predivna slika.
    D5       C#5
    Predivna slika.
    B5       A5
    Predivna...

  C5 H5
       Da li je jebeno moguce?!
  C5 H5
       Da li je jebeno moguce?!
  C5 H5
       Da li je jebeno moguce?!
  C5 H5
       Da li je jebeno moguce?!
  C5 H5
       Da li je jebeno moguce?!
  C5 H5                        B5 A5
       Da li je jebeno moguce?!