Bolero - Galebovi

Transkripcija: metalemija@yahoo.com


uvod:
gitara I                                        gitara II
|-------------------|-----------------------    Am Asus2
|--------1---1-0--0-|-----------------------
|-------------------|ili--------5----5-4-4b-
|---2--2---2--------|------7--7----7--------
|-0-----------------|----7------------------
|-------------------|-----------------------

Am                                  AmAsus2Am
 Hajde poljubi me leptirice i ne boj se

 hajde pokloni mi zamah krila povedi me
               Dm (cis c h) Am-AmAsus2-Asus2Am-AmAsus2
 samo ne reci ne

 Am-AmAsus2-Asus2Am-AmAsus2
 Hajde priblizi se leptirice i ne boj se

 poljubac ponesi njoj evo ti adresa i broj
              Am
 samo ne reci ne

 ref:  AmAsus2Asus4  2x
 
 AmAsus2Asus4
 I ponesi me u zemlju galebova
 povedi me u jedan novi dan
 tamo gdje se cuje samo pjesma
 gdje pupoljci nikada ne trunu
 poljubi me i reci zbogom zemljo
 koja znas za tugu i sudbinu
   C    G  Dm         E
 odreci se zabluda i svijeta
    C     G   Dm      E
pokopaj sve istine i lazi
Am            E
hajde poljubi me

|-----------------------------------------------------------
|---------------------------------15b----------------15b----
|-9b-11b-12b-15b-12b--12-xxx-14-12-----12-1212-14-12--------
|-----------------------------------------------------------
|-----------------------------------------------------------
|-----------------------------------------------------------

 A5-priguseno

 Hajde priblizi se leptirice i ne boj se
 poljubac ponesi njoj evo ti adresa i broj
 samo ne reci ne

 ref:  AmAsus2Asus4


***VERZIJA 2***
Transkripcija: Carobnjak

Am  
 Hajde poljubi me leptirice i ne boj se
 
 hajde pokloni mi zamah krila povedi me
               Dm (cis c h) Am
 samo ne reci ne
 
 Am
 Hajde priblizi se leptirice i ne boj se
 
 poljubac ponesi njoj evo ti adresa i broj
              Am
 samo ne reci ne
 
 ref:
 Am
 I ponesi me u zemlju galebova
 Am
 povedi me u jedan novi dan
 Am
 tamo gdje se cuje samo pjesma
 Am
 gdje pupoljci nikada ne trunu
 Am
 poljubi me i reci zbogom zemljo
 Am
 ti koja znas za tugu i sudbinu
   C    G  Dm         E
 odreci se zabluda i svijeta
    C     G   Dm      E
pokopaj sve istine i lazi
Am            E
hajde poljubi me
 
 Hajde priblizi se leptirice i ne boj se
 poljubac ponesi njoj evo ti adresa i broj
 samo ne reci ne
 
 ref: