Bolero - Sjecanja

Transkripcija: pipss@mail.ru
Album        : Na kraju slavlja (1986)


Uvod: (refren::tema)

Cm
Cudan miris osjecam na tvome ramenu,
                                         Ab  [Eb D]
miris neke tajnosti u tvome pogledu. a-a a....

Rijeci tesko razumijem, pricas mi o necemu,
a nikad nije bilo u nasem vremenu.

Cm       G       G          Cm
Sjecanja na tebe ne umiru u snu,
Cm        G              G            Cm [C D]
plasim se svakog sna jer znam da nisi tu.

Eb       Fm    G            Cm  [C D]
Sjecanja na tebe ne umiru u snu,
Eb        Fm     G                    Cm [C D]
plasim se svakog sna jer znam da nisi tu.

Tu su neki ljudi koje nikad nisam vidio,
stvari su drugacije a tako poznate.

Zelim da progovorim a ne mogu da prozborim,
neki drhtaj osjecam, pa ja se budim!

Sjecanja na tebe ne umiru u snu,
plasim se svakog sna jer znam da nisi tu. x2


SOLO: (hromatski riff)
E|-------------------------------------------------------------|
B|-------------------------------------------------------------|
G|-----0h1-0-----0h1-0-----0h1-0------------------0h1-0--------|
D|------------------------------------------0h1-3-------3-1-0--|
A|--3---------2---------1---------------1-2--------------------|
E|--------------------------------1-3-4------------------------|

E|------------------------------------------------3b-3---------|
B|------------------------------------------3-4-5------5-4-3---|
G|-----0h1-0-----0h1-0-----0h1-0--------3-5--------------------|
D|--------------------------------3-5-6------------------------|
A|--3---------2---------1--------------------------------------|
E|--//--------//--------//-------------------------------------|
                                  p.m._______________                 Cm...
E|--------------------------------------------------------------------|
B|-----8br-8~----8br-8~----8br-8~---------------------8br-8-----------|
G|---------------------------------------------7-8-10-------10-8-7----|
D|-/10~-------9~--------8~----------------8-10---------------------10-|
A|--------------------------------8-10-11-----------------------------|
E|--------------------------------------------------------------------|


Sjecanja na tebe...