Bolero - Sviri Harmoniko Tugo, Tugo

Transkripcija: Fender - havarija@net.hr


Ovu pijesmu imam na kaseti na kojoj je jako los
snimak, pa nemojte zamjeriti na grskama.


Sviri harmoniko tugo, tugo
prsti svirca ?????????????
Napij sa mnom kuco sugo
               Hm
napij sa mnom, sa mnom

Izgubljena si i ofucana
      G  Hm
preko mjere
Sta zvjerkas tim plavim ocurdama
      G      A
da te odaderem
Em
Jos bi samo u vrh pristajala 
da vrane plasis
Hm
Ides mi na jetra mala 
     G    Hm      G   A
i da sjasis, i da sjasis

ref:
Hm
Sviraj harmoniko, sviraj onu moju
G           A   G   Hm
trgni tikvo suplja ponosi sa drugim,
                 G           A    G   Hm
radi jedne koja, ta je ponaj gluplja

Hm
Sviraj harmoniko, sviraj onu moju
G           A   G   Hm
trgni tikvo suplja ponosi sa drugim
                 G           A    G   D
radi jedne koja, ta je ponaj gluplja

solo:
E|---------------------------------------------------|
H|---------------------------------------------------|
G|---------------------------------------------------|DVA PUTA
D|------4-5-4-2-4--------2---------------------------|
A|-2---------------4--5-----4--5--2----/-\1----------|
E|---------------------------------------------------|

E|---------------------------------------------------|
H|---------------------------------3-2-0-3b----------|
G|---------------------------------------------------|
D|---------------------------------------------------|
A|-1-1--4-4--5-4-2-5----1-1--4-4---------------------|
E|---------------------------------------------------|

/ \-slide od drugoga polja prema dolje te nazad na prvo
    uz jedno okidenje zice
b - bend

Hm                                      G    Hm
Mnogo vas je bilo ti mi dakle nisi neka prvina
                                      G    A
al' nijedna ne bje ko sto ti si takva strvina
Hm                                              G   Hm
Sto bolnije to zvucnije tu dolje ili drugdje uz ljagu 
                                  G    A
necu da se ubijem zbog drolje idi kvragu

Em    
Dojadi mi da rastacem, zivot ustaj lovos prosi 
Hm
Ja placem draga placem, placem, placem
G    Hm  G     A
Oprosti, oprosti

ref: