Books Of Knjige, The - Smoki

Transkripcija: blagoye


Uvod: (ponavlja se kroz sve strofe)
E||------------------------------|-----------------------------|
B||-----1-------1-----1-------1--|-----1-------1---------------|
G||------------------------------|-----------------------------|
D||--------0h-2----------0h-2----|--------0h-2-----------------|
A||--3-------------3-------------|--3-------------3-----0--2---|
E||------------------------------|-------------------3---------|

------------------------------|------------------------------|
-----1-------1-----1-------1--|-----0-------0-----0-------0--|
------------------------------|------------------------------|
--------0h-2----------0h-2----|------------------------------|
--3-------------3-------------|--------0h-2----------0h-2----|
------------------------------|--3-------------3-------------|

----------------------------|------------------------------|
-----1-------1-----1--------|-----1-------1-----1-------1--|
----------------------------|--------0h-2----------0h-2----|
--------0h-2----------0--2--|--3-------------3-------------|
--3-------------3-----------|------------------------------|
----------------------------|------------------------------|

------------------------------|----------------------------||
-----1-------1-----0-------0--|-----1-------1--------------||
------------------------------|----------------------------||
--------0h-2------------------|--------0h-2----------------||
--3-------------------0h-2----|--3-------------3-----0--2--||
----------------3-------------|-------------------3--------||


Ppppsjj...
Ajmo mali, mali! Hop, hop!
Pa kaze...


C
Imam konja zvanog Smokija,
                        G
na njeg' jasem s'kaubojima.
C
Divlje konje lovim s'njim,
F
pa ga zovem vatrenim.
C          G            C
Ponosim se ja sa konjem tim!

Imam konja zvanog Smokija,
na njeg' jasem s'kaubojima.
Divlje konje lovim s'njim,
pa ga zovem vatrenim.
Ponosim se ja sa konjem tim!

Ref:
     F           C
Ojla leeee, ojla laaaaa,
            G            C
ponosan sam pravi kauboj ja!
     F           C
Ojla leeee, ojla laaaaa,
            G            C
ponosan sam pravi kauboj ja!

Skinem glavu stavim ja sombrero,
sombrero, sombrero, kazem maloj ne budi bre olero!
Imam konja znam se s'njim,
ponosim se ja sa njim,
Ponosim se ja sa Smokim! Nji!

[Ref]

Ajmo solo malo!

C    G
     Trtlja, trtlja!
C    G    C

C    G
     duda, duda.
C    G       C
     Oj duda oj!

Imas konja zvanog Smokija,
na njeg' jases s'kaubojima.
Divlje konje lovis s'njim,
pa ga zoves vatrenim.
Ponosim se ja sa konjem tim!

[Ref]


C           G
Ponosan sam pravi kauboj
F          C
jaaaaaaaa, heeeeej.