Borislav Mitic - Celtic Legends 2

Transkripcija: Carpe Diem


Intro
E||--------------------|--------------------|--------------------|
B||--------------------|--------------------|--------------------|
G||--------6--------4--|--------6--------6--|--------------------|
D||-----6--------4-----|-----6--------6-----|--------2--------4--|
A||--4--------2--------|--4--------4--------|-----2--------4-----|
E||--------------------|--------------------|--0--------2--------|

--------------------|--------------------|--------------------|
--------------------|--------------------|--------------------|
--------6--------6--|--------6--------4--|--------6--------6--|
-----6--------6-----|-----6--------4-----|-----6--------6-----|
--4--------4--------|--4--------2--------|--4--------4--------|
--------------------|--------------------|--------------------|

--------------------|--------------------|
--------------------|--------------------|
--------------------|--------6--------6--|
--------2--------4--|-----6--------6-----|
-----2--------4-----|--4--------4--------|
--0---------2-------|--------------------|

----------------------|
----------------------|
--9~-----8h9h8--------|
---------------11--9--|
----------------------|
----------------------|

-----------------------|-------------------------|----------------------|
-----------------------|-------------------------|----------------------|
--------------------8--|--9--8--11--8h9h8--------|---------8------------|
--9h11-------9--11-----|------------------11--9--|--9--11-----11~---11--|
---------11~-----------|-------------------------|----------------------|
-----------------------|-------------------------|----------------------|

----------------------|-----------------------|-------------------------|
----------------------|-----------------------|-------------------------|
--9~-----8h9h8--------|--------------------8--|--9--8--11--8h9h8--------|
---------------11--9--|--9h11-------9--11-----|------------------11--9--|
----------------------|---------11~-----------|-------------------------|
----------------------|-----------------------|-------------------------|

--------------------|---------------------------|--------------------------|
--------------------|--12~-----10h12h10---------|----------------------10--|
---------8----------|-------------------13--11--|--11h13-------11--13------|
--9--11-----11~-----|---------------------------|----------14~-------------|
--------------------|---------------------------|--------------------------|
--------------------|---------------------------|--------------------------|

-------------------------------|------------------------|
--12--10--14--10h12h10---------|----------10------------|
-----------------------13--11--|--11--13------13~---13--|
-------------------------------|------------------------|
-------------------------------|------------------------|
-------------------------------|------------------------|

-----------------------------|--------------------------|
--12~---12--10h12h10---------|----------------------10--|
---------------------13--11--|--11h13-------11--13------|
-----------------------------|----------14~-------------|
-----------------------------|--------------------------|
-----------------------------|--------------------------|

-------------------------------|----------------------|--------------|
--12--10--14--10h12h10---------|----------10----------|--------------|
-----------------------13--11--|--11--13------13~-----|--------------|
-------------------------------|----------------------|--------------|
-------------------------------|----------------------|--------------|
-------------------------------|----------------------|--------------|

|----------------|
|----------------|
|--6------4------|
|--6------4------|
|--4------2------|
|----------------|

---------------|----------------|---------------|----------------|
---------------|----------------|---------------|----------------|
--6------------|----------------|--6------------|--6------4------|
--6------------|--2------4------|--6------------|--6------4------|
--4------------|--2------4------|--4------------|--4------2------|
---------------|--0------2------|---------------|----------------|

---------------|----------------|---------------|
---------------|----------------|---------------|
--6------------|----------------|--6------------|
--6------------|--2------4------|--6------------|
--4------------|--2------4------|--4------------|
---------------|--0------2------|---------------|

|----------------------|-----------------------|
|----------------------|-----------------------|
|--9~-----8h9h8--------|--------------------8--|
|---------------11--9--|--9h11-------9--11-----|
|----------------------|---------11~-----------|
|----------------------|-----------------------|

-------------------------|----------------------|----------------------|
-------------------------|----------------------|----------------------|
--9--8--11--8h9h8--------|---------8------------|--9~-----8h9h8--------|
------------------11--9--|--9--11-----11~---11--|---------------11--9--|
-------------------------|----------------------|----------------------|
-------------------------|----------------------|----------------------|

-----------------------|-------------------------|--------------------|
-----------------------|-------------------------|--------------------|
--------------------8--|--9--8--11--8h9h8--------|---------8----------|
--9h11-------9--11-----|------------------11--9--|--9--11-----11~-----|
---------11~-----------|-------------------------|--------------------|
-----------------------|-------------------------|--------------------|

---------------------------|--------------------------|
--12~-----10h12h10---------|----------------------10--|
-------------------13--11--|--11h13-------11--13------|
---------------------------|----------14~-------------|
---------------------------|--------------------------|
---------------------------|--------------------------|

-------------------------------|------------------------|
--12--10--14--10h12h10---------|----------10------------|
-----------------------13--11--|--11--13------13~---13--|
-------------------------------|------------------------|
-------------------------------|------------------------|
-------------------------------|------------------------|

-----------------------------|--------------------------|
--12~---12--10h12h10---------|----------------------10--|
---------------------13--11--|--11h13-------11--13------|
-----------------------------|----------14~-------------|
-----------------------------|--------------------------|
-----------------------------|--------------------------|

-------------------------------|----------------------||
--12--10--14--10h12h10---------|----------10----------||
-----------------------13--11--|--11--13------13~-----||
-------------------------------|----------------------||
-------------------------------|----------------------||
-------------------------------|----------------------||


***VERZIJA 2***
Transkripcija: Luka N.

Uvod:
e----------------I--------------------------------I
B----------------I--------------------------------I
G----------------I--------------------------------I
D--7-10--9-7-5-7-I-7-5-7-9-10-12-10-9-7-5-7-9-7---I
A----------------I--------------------------------I 2x
E----------------I--------------------------------I