Borislav Mitic - Chasing A Dream

Transkripcija: Jere Haakana.


I just got some RA songs of Borislav Mitic's debut album. Sounds pretty
awesome! Get his cd now if you don't have it yet ( well I don't but I
guess I have to get it! :o) I tabbed this listening to the other one of
the RA's, called Chasing A Dream. The sound quality was pretty shitty
but I think I got it 99% accurate. This song is simply awesome, and it's
not that hard to learn it either coz it has this looooong main theme 
that's repeated like 4 times during the song. Remember to tune down a 
half step.

                      Chasing A Dream by Borislav Mitic

                                                                       
------------------------------------------------------------------------
------------------------------------------------------------------------
-----------------------------------------------7--9--7------7--9--11----
----------7-------------7--9--11--9--7--9--11-----------11--------------
7--9--11-----11--9--11--------------------------------------------------
------------------------------------------------------------------------
                                                                       

                                                                       
----------|--14--12--10--------------10------12--10---------------------
9---------|--------------14--13--12------14----------14--12--10---------
---11--9--|------------------------------------------------------13-----
----------|-------------------------------------------------------------
----------|-------------------------------------------------------------
----------|-------------------------------------------------------------
                                                                       

                                                                       
------------------------------------||----------------------------------
------------------------------------||---4--7--5--------3---------------
11--9------11--9--------------------||*-----------6--5-----6--2---------
-------13---------11--9-------------||*--------------------------6------
-------------------------11--9------||----------------------------------
--------------------------------12--||----------------------------------
                                                                       

                                                                       
----------------------------------------------|-------------------------
----------------------------------------------|-------------------------
4--2------------------------------------------|--6--9--7--------6-------
------4--------------5--6--9--6--7--8--9--10--|-----------9--8-----9----
---------6--7--8--9---------------------------|-------------------------
----------------------------------------------|-------------------------
                                                                       

                                                                       
----------------------------------------------------------|--11--14-----
----------------------------------------------------------|-------------
------6--7------------------------------------------------|-------------
6--9--------8--11--10--9----------------------------------|-------------
--------------------------11--9--7------------------------|-------------
------------------------------------10--14--12--10--7--4--|-------------
                                                                       

                                                                       
12----------10----------------------------------------------------------
----14--13------14--10------12--10--------------------8--9--12--9-------
------------------------13----------11--8--9--10--11--------------------
------------------------------------------------------------------------
------------------------------------------------------------------------
------------------------------------------------------------------------
                                                                       

                                                                       
----------------|--9--12--10----------9-------------9--10---------------
10--11--12--13--|-------------12--11-----12--9--12---------11--14-------
----------------|-------------------------------------------------------
----------------|-------------------------------------------------------
----------------|-------------------------------------------------------
----------------|-------------------------------------------------------
                                                                       

                                                                       
--------------------------------------|--------------------9------12----
13--12--------------------------------|-------------10--------10--------
--------13--11--9--7--11--9--7--------|------9----------9---------------
--------------------------------9--6--|---------11----------------------
--------------------------------------|--12-----------------------------
--------------------------------------|---------------------------------
                                                                       

                                                                       
9-------------14--10------------------------------------------|---------
---10-----------------10--14------10----------------------10--|---------
-------9----------------------11----------11----------11------|---------
----------11--------------------------12----------12----------|---------
----------------------------------------------12--------------|--11-----
--------------------------------------------------------------|---------
                                                                       

                                                                       
--------------------13--10--------------17--12----------12--9-----------
-------------9--------------12------------------14-------------10-------
7-----10--7-----10--------------13--10--------------14-------------9----
---9--------------------------------------------------------------------
------------------------------------------------------------------------
------------------------------------------------------------------------
                                                                       

                                                                       
--------------|---------------------------------------------------------
--------------|---------------------------------------------------------
--------------|--9~~~--7--6------------9--12--11------------10--11------
11------------|--------------9--8--11-------------8--9--12--------------
----12--7-----|---------------------------------------------------------
-----------9--|---------------------------------------------------------
                                                                       

                                                                       
----------------------------12--|--14--12------------------14--12-------
--------11--12------12--14------|----------14---------------------------
----11----------11--------------|--------------14--11-------------------
12------------------------------|----------------------14---------------
--------------------------------|---------------------------------------
--------------------------------|---------------------------------------
                                                                       

                                                                       
----------------14--12-------------------------------------||-----------
14--11------------------15--12-----------------------------||-----------
--------12----------------------13--11--9--7--------------*||-----------
------------14--------------------------------9--6--------*||-----------
----------------------------------------------------9--7---||-----------
-----------------------------------------------------------||--9--13----
                                                                       

                                                                       
-------------------------------------8--9-------------9--14--9----------
------------9--14--9--------------9--------10--7--10------------10------
--------10------------10------10----------------------------------------
----11--------------------11--------------------------------------------
11----------------------------------------------------------------------
------------------------------------------------------------------------
                                                                       

                                                                       
------------|----------------------------------------------8--9---------
------------|---------------------9--14--9--------------9--------10-----
11----------|-----------------10------------10------10------------------
----11------|-------------11--------------------11----------------------
--------12--|---------11------------------------------------------------
------------|--9--13----------------------------------------------------
                                                                       

                                                                       
-------9--14--9------------------|---------------------9--14--9---------
7--10------------10--------------|-----------------11------------11-----
---------------------11----------|-------------11-----------------------
-------------------------11------|---------11---------------------------
-----------------------------12--|--9--13-------------------------------
---------------------------------|--------------------------------------
                                                                       

                                                                       
--------9--13--14--------------14--19--14------------------|--17--16----
----11-------------15--12--15--------------15--------------|------------
11---------------------------------------------16----------|------------
---------------------------------------------------16------|------------
-------------------------------------------------------17--|------------
-----------------------------------------------------------|------------
                                                                       

                                                                       
14----------------------------------------------------------------------
----17--15--14--19--17--15--------------17--16--15--14--15--------------
----------------------------18--16--14----------------------16--13------
------------------------------------------------------------------------
------------------------------------------------------------------------
------------------------------------------------------------------------
                                                                       

                     With wah                                          
------------------|-----------------------------------------------------
------------------|--14~~~--12--10~~~----------------------------15-----
9-----------------|--------------------13--13~~~--11--10~~~--11---------
---12--9----------|-----------------------------------------------------
----------11------|-----------------------------------------------------
--------------12--|-----------------------------------------------------
                                                                       

                                                                       
------------------------------------------|-----------------------------
~~~--14--12~~~----------------------------|--19~~~--17--15~~~-----------
----------------14--14~~~--13--12~~~--13--|--------------------15-------
------------------------------------------|-----------------------------
------------------------------------------|-----------------------------
------------------------------------------|-----------------------------
                                                                       

                                                                       
14------------------------------------------14--|--17--16--14-----------
----14----------------------------------15------|--------------17-------
--------15--------------------------16----------|-----------------------
------------16------------------16--------------|-----------------------
----------------16--13--14--17------------------|-----------------------
------------------------------------------------|-----------------------
                                                                       

                                                                       
16--14----------14------------------------------------------------------
--------17--15------17--15--14--17--15--14------------------------------
--------------------------------------------16--19--16----------16------
--------------------------------------------------------18--------------
------------------------------------------------------------19----------
------------------------------------------------------------------------
                                                                       

                                          With wah                     
---------------------------------------|--------------------------------
---------------------------------------|--------------------------------
13----------13--9----------------------|--------------------------------
----14-------------12------6--2--------|--11~~~--9--7~~~----------------
--------17-------------14--------4--2--|------------------11--11--------
---------------------------------------|--------------------------------
                                                                       

                                                                       
------------------------------------------------------------|-----------
------------------------------------------------------------|-----------
------------------------------------------------------------|-----------
-----------------12~~~--11--9~~~----------------------------|--16-------
~~~--9--8~~~--9-------------------12--12~~~--11--10~~~--11--|-----------
------------------------------------------------------------|-----------
                                                                       

                                                                       
------------------------------------------|-----------------------------
------------------------------------------|-----------------------------
------------------------------------------|-----------------------------
~~~--14--12~~~----------------------------|------------7----------------
----------------16--14~~~--13--13~~~--14--|--7--9--11-----11--9--11-----
------------------------------------------|-----------------------------
                                                                       

                                                                       
--------------------------------------------------------|--14--12-------
----------------------------------------------9---------|---------------
-----------------------7--9--7------7--9--11-----11--9--|---------------
7--9--11--9--7--9--11-----------11----------------------|---------------
--------------------------------------------------------|---------------
--------------------------------------------------------|---------------
                                                                       

                                                                       
10--------------10------12--10------------------------------------------
----14--13--12------14----------14--12--10------------------------------
--------------------------------------------13--11--9------11--9--------
-------------------------------------------------------13---------11----
------------------------------------------------------------------------
------------------------------------------------------------------------
                                                                       

             Play the WHOLE tab before this little note, then this outro      
--------------|---------------------------------------------------------
--------------|---------------------------------------------------------
--------------|---------------------------------------------------------
9-------------|---------------------------------------------------------
---11--9------|-----------0-----------------4------------------7--------
----------12--|--0--2--4-----4--2--4--5--7-----7--5--7--9--10-----10----
                                                                       

                                                                       
---------------------------|--------------------------------------------
---------------------------|--------------------------------------------
---------------------------|--------------------------------------------
---------------------------|------------7-------------7--9--11--9--7----
---------------11----------|--7--9--11-----11--9--11--------------------
9--10--12--14------14--12--|--------------------------------------------
                                                                       

                                                                       
----------------------------------------|-------------------------------
------------------------------9---------|---------9--10--9------9-------
-------7--9--7------7--9--11-----11--9--|--9--11------------11----------
9--11-----------11----------------------|-------------------------------
----------------------------------------|-------------------------------
----------------------------------------|-------------------------------
                                                                       

                                                                       
------------------------9--10--12--10--9--10--12--14--16--14--12--|-----
10--12--14--12--10--12--------------------------------------------|-----
------------------------------------------------------------------|-----
------------------------------------------------------------------|-----
------------------------------------------------------------------|-----
------------------------------------------------------------------|-----
                                                                       

                                                                       
17--12--------------------------------------18--17--12------------------
--------14------------------------------15--------------14--------------
------------14----------------------15----------------------14----------
----------------14--------------15------------------------------14------
--------------------16--13--17------------------------------------------
------------------------------------------------------------------------
                                                                       

                                                                       
------------------------18--|--17--12------------------13---------------
--------------------15------|----------14------------------15-----------
----------------15----------|--------------14------------------15-------
------------15--------------|------------------14-----------------------
16--13--17------------------|----------------------16-------------------
----------------------------|-------------------------------------------
                                                                       

                                                                       
--------------------------------------------------------12--------------
--------------------------------14------------------14------------------
----------------------------14------------------14----------------------
15----------------------14------------------14------------------14------
----17--13------12--16--------------12--16------------------16----------
------------12----------------------------------------------------------
                                                                       

                                                                       
--------12--17--|--21~~~--||--------------------------------------------
----14----------|---------||--------------------------------------------
14--------------|---------||--------------------------------------------
----------------|---------||--------------------------------------------
----------------|---------||--------------------------------------------
----------------|---------||--------------------------------------------