Borislav Mitic - Moto Perpetuo

Transkripcija: Carpe Diem


                                  MOTO PERPETUO
                   As recorded by Niccolo Paganini (1782-1840)
                            Performed by Borislav Mitic

Arranged by Abner Rossi
Transcribed by Carpe Diem

           C                   Am                   Dm7                  G7
      x 3 2 0 1 0          x 0 2 2 1 0          x x 0 2 1 1          3 2 0 0 0 1

Gtr I (E A D G B E) - 'Untitled'


  Q=200
 4/4
  Gtr I
  W          W          E E E E E E E E   E E E E E E E E
|----------|----------|-----------------|------------------|
|----------|----------|-------------5---|------------------|
|----------|----------|-5-7-5-4-5-7---5-|-7-5-4-------4-5--|
|----------|----------|-----------------|-------7-5-7------|
|----------|----------|-----------------|------------------|
|----------|----------|-----------------|------------------|


  E E E E E E E E   E E E E E E E E   E E E E E E E E   E E E E E E E E
|-----------------|-----------------|-------------5---|-----------------|
|---5-6-5-8-6-5---|-5-6-5-------5-6-|-8-6-5-----5---8-|-6-5---------8-6-|
|-7-------------7-|-------7-5-7-----|-------7-6-------|-----7-5-4-7-----|
|-----------------|-----------------|-----------------|-----------------|
|-----------------|-----------------|-----------------|-----------------|
|-----------------|-----------------|-----------------|-----------------|


  E E E E E E E E   E E E E E E E E   E E E E E E E E   E E E E E E E E
|-----------------|-----------------|-----------------|-----------------|
|-5-----------5---|-----------------|-------------5---|-----------------|
|---7-5-4---7---7-|-5-4-----------4-|-5-7-5-4-5-7---5-|-7-5-4-------4-5-|
|---------7-------|-----7-5-4-5-7---|-----------------|-------7-5-7-----|
|-----------------|-----------------|-----------------|-----------------|
|-----------------|-----------------|-----------------|-----------------|


  E E E E E E E E   E E E E E E E E   E E E E E E E E   E E E E E E E E
|-----------------|-----------------|-------------5---|-----------------|
|---5-6-5-8-6-5---|-5-6-5-------5-6-|-8-6-5-----5---8-|-6-5---------8-6-|
|-7-------------7-|-------7-5-7-----|-------7-6-------|-----7-5-4-7-----|
|-----------------|-----------------|-----------------|-----------------|
|-----------------|-----------------|-----------------|-----------------|
|-----------------|-----------------|-----------------|-----------------|


  E E E E E E E E   E E E E E E E E   E E E E E E E E   E E E E E E E E
|-----------------|-----------------|-----------------|-----------------|
|-5-----------6-5-|-------------5---|-----------------|-----------------|
|---7-5-4---5-----|-7-5-4-----4---7-|-5-4---------7-5-|-4-------4-5-7-5-|
|---------7-------|-------7-6-------|-----7-5-4-7-----|---7-5-7---------|
|-----------------|-----------------|-----------------|-----------------|
|-----------------|-----------------|-----------------|-----------------|


  E E E E E E E E   E E E E E E E E   E E E E E E E E   E E E E E E E E
|-------------5---|-5-------5-------|-----------------|-----------------|
|-------5-6-8---8-|---8-7-8---8-6-5-|-8-6-5-6-8-6-5---|-6-5-4-5-6-5-----|
|-4-5-7-----------|-----------------|---------------7-|-------------7-5-|
|-----------------|-----------------|-----------------|-----------------|
|-----------------|-----------------|-----------------|-----------------|
|-----------------|-----------------|-----------------|-----------------|


  E E E E E E E E   E E E E E E E E   E E E E E E E E    E E E E  E E E  E
|-----------------|-----------------|-----------5-7-8-|----7-8-7-10-8-7----|
|-5-------5-------|-------------5-6-|-8-6-5-6-8-------|-10--------------10-|
|---7-6-7---7-5-4-|-5-----4-5-7-----|-----------------|--------------------|
|-----------------|---5-7-----------|-----------------|--------------------|
|-----------------|-----------------|-----------------|--------------------|
|-----------------|-----------------|-----------------|--------------------|


   E E E E E E E E   E E E E E E E E   E E E E E E E E    E E E E  E E E  E
|----------7-5-----|-----------------|-----------5-7-8-|----7-8-7-10-8-7----|
|-10-8-7-8-----8-6-|-5-----------5-6-|-8-6-5-6-8-------|-10--------------10-|
|------------------|-------4-5-7-----|-----------------|--------------------|
|------------------|---5-7-----------|-----------------|--------------------|
|------------------|-----------------|-----------------|--------------------|
|------------------|-----------------|-----------------|--------------------|


   E E E E E E E E   E E  E E  E E  E E
|----------7-5-----|------------------7-|
|-10-8-7-8-----8-6-|---8---------8-10---|
|------------------|-9---10-9-10--------|
|------------------|--------------------|
|------------------|--------------------|
|------------------|--------------------|


  E E E E  E E E  E   E  E E  E E E  E E
|-8-7-8-7-10-8-7----|------7-------------|
|----------------10-|-9-10---10-9------9-|
|-------------------|-------------9-11---|
|-------------------|--------------------|
|-------------------|--------------------|
|-------------------|--------------------|


   E E E E E E  E E   E E E E E E E E   E E E E E E E E   E E E E E E E E
|----7-8-7-8-7------|-----5-----------|-------5-7-5-----|-----------------|
|-10-----------10-8-|-7-8---8-7---5-7-|-8-7-8-------8-7-|-8-7-5---5-7-8-7-|
|-------------------|-----------7-----|-----------------|-------8---------|
|-------------------|-----------------|-----------------|-----------------|
|-------------------|-----------------|-----------------|-----------------|
|-------------------|-----------------|-----------------|-----------------|


  E E E E E E E E   E E E E E E E E   E E E E  E E E  E   E E  E E  E E E E
|-5---------------|-----------------|------------7-8-10-|-8-7-10-7------7---|
|---8-7-5---------|-----------------|-----7-8-10--------|----------10-8---8-|
|---------7-6-4-6-|-7-----------4-6-|-7-9---------------|-------------------|
|-----------------|-------4-5-7-----|-------------------|-------------------|
|-----------------|---5-7-----------|-------------------|-------------------|
|-----------------|-----------------|-------------------|-------------------|


  E E E E E E E E   E E E E E E E E   E E E E E E E E   E E E E E E E E
|-----------------|-----------------|---------5-------|-----------------|
|-7-5-8-5-----5---|-----------------|---5-7-8---7-----|-----------------|
|---------7-6---6-|-7-----------4-6-|-7-----------7-5-|-5-4-7-4-----4---|
|-----------------|-------4-5-7-----|-----------------|---------7-5---5-|
|-----------------|---5-7-----------|-----------------|-----------------|
|-----------------|-----------------|-----------------|-----------------|


  E E E E E E E E   E E E E E E E E   E E E E E E E E   E E E E E E E E
|-----------------|-------------5---|---5-------------|-------------5---|
|-----------------|-----------5---8-|-7---7-----------|-----------5---8-|
|-----------------|-------7-6-------|-------7-6-------|-------7-6-------|
|-4---5-----------|---4-7-----------|-----------7-5---|---4-7-----------|
|---7---7-5-4-7-4-|-5---------------|---------------7-|-5---------------|
|-----------------|-----------------|-----------------|-----------------|


  E E E E E E E E   E E E E E  E E  E   E E  E E E E E E   E E E E E E E E
|---5-------------|--------------9-10-|-8-7--------------|-------------5-7-|
|-7---7-----------|---------7-10------|-----10-8-7-------|-------5-7-8-----|
|-------7-6-------|-------7-----------|------------9-7-5-|---5-7-----------|
|-----------7-5---|---4-7-------------|------------------|-9---------------|
|---------------7-|-5-----------------|------------------|-----------------|
|-----------------|-------------------|------------------|-----------------|


   E E E E E  E E E    E E E E E E E E   E E E E E E E E   E E E E E E E E
|-------------------|------------------|-----------------|-----------------|
|-10-8-7------------|------------5-7-8-|-6-5-------------|---------------5-|
|--------9-8--------|--------6-8-------|-----7-5-4-------|---------4-5-7---|
|------------10-9-7-|----7-9-----------|-----------7-5---|---4-5-7---------|
|-------------------|-10---------------|---------------8-|-7---------------|
|-------------------|------------------|-----------------|-----------------|


  E E E E E E E E   E  E E  E E E E E    E E  E E E  E E E   E E E E E E E E
|-----------------|---10-7------7-----|----8---------------|---7-------------|
|-5---------------|--------10-9-----9-|-10---10-8-7-10---7-|-8---8-7---8---5-|
|---7-4-7-7-5-4---|---------------9---|----------------7---|---------9---6---|
|---------------7-|-5-----------------|--------------------|-----------------|
|-----------------|-------------------|--------------------|-----------------|
|-----------------|-------------------|--------------------|-----------------|


  E E E E E E E E   E E E E E E E E   E E E E  E E E  E   E E  E E E  E E  E
|---5-------------|-----------------|------------7-8-10-|-8-7-10-7-7----8----|
|-7---7-5---7-----|---8-------------|-----7-8-10--------|------------10---10-|
|---------8-----8-|-9---9-7-6-9---6-|-7-9---------------|--------------------|
|-------------9---|-------------7---|-------------------|--------------------|
|-----------------|-----------------|-------------------|--------------------|
|-----------------|-----------------|-------------------|--------------------|


   E E E E E E  E E   E E E E E E E E   E E E E E E E E   E E E E E E E E
|------7------------|-----------------|-----------------|-----------------|
|-10-8---8-8-7-10-7-|-8---------6-5---|-----------5-----|-----------------|
|-------------------|---7-4---------7-|-5-4---------7-5-|-4---------7-5-4-|
|-------------------|-------7-6-------|-----7-5-4-------|---7-5-4---------|
|-------------------|-----------------|-----------------|---------7-------|
|-------------------|-----------------|-----------------|-----------------|


  E E E E E E E E   E E E E E E E E   E E E E E E E E   E E E E E E E E
|-----------------|-----------------|-----------------|-----------------|
|-----------------|-----------------|-----------------|---5-------------|
|-----------5-4---|-----------4-----|-------------4-5-|-7---7-4-5-7-5---|
|-7-5-4---------7-|-5-4---------7-5-|-4-----4-5-7-----|---------------7-|
|-------7-6-------|-----7-5-4-------|---5-7-----------|-----------------|
|-----------------|-----------------|-----------------|-----------------|


  E E E E E E E E   E E E E E E E E   E E  E  E E  E E  E   E E  E E E  E E E
|-----------------|-----------5-----|--------10-9-10-8----|---7---------------|
|-----------------|-------8-7---8-5-|---7-10-----------10-|-8---10-8-7-10-8---|
|-4-5-4-----4-----|---4-7-----------|-7-------------------|-----------------9-|
|-------5-7---7-4-|-5---------------|---------------------|-------------------|
|-----------------|-----------------|---------------------|-------------------|
|-----------------|-----------------|---------------------|-------------------|


  E E E E E E E E   E E E E E E E E   E E E E E E E E   E E E E E E E E
|-----------------|-----------------|-----------------|-----------------|
|-----5-----------|-----------------|-----------------|-----------------|
|-7-6---7-5-4-5---|---4-------------|-----------------|-----------------|
|---------------7-|-5---7-5-4-7-5---|-----------------|-------5-4-------|
|-----------------|---------------7-|-5-4-7-5---------|---2-5-----5-3---|
|-----------------|-----------------|---------8-7-8-5-|-3-------------5-|


  E E E E E E E E   E E E E E E E E   E E E E E E E E   E  E E  E E  E E  E
|-----------------|-----------------|-----------------|---------------------|
|-----------------|-------------7-8-|-7-8-7-8-7-8-7-8-|-9-10-9-10-9-10-9-10-|
|-----------------|---------4-7-----|-----------------|---------------------|
|-------5-4-------|-------5---------|-----------------|---------------------|
|---2-5-----5-3---|---2-5-----------|-----------------|---------------------|
|-3-------------5-|-3---------------|-----------------|---------------------|


  E E E E E E E E   E E E E E E E E   E E E E E E E E   E E E E E E E E
|-----------------|-----------------|-----------------|-----------------|
|-8-6-5-6-8-6-5---|-----------------|-----------------|-------5---6-5-8-|
|---------------7-|-5-4-7-5-4-5---4-|-----------4---5-|-4-7-5---7-------|
|-----------------|-------------7---|-5-7-5-4-5---7---|-----------------|
|-----------------|-----------------|-----------------|-----------------|
|-----------------|-----------------|-----------------|-----------------|


  E E E E E E E E   E E E E E E E E   E E E E E E E E   E E E E E E E E
|-----------------|-----------------|-----------------|-----------------|
|-6---------------|-----------------|-------------5---|-----------------|
|---7-4-5---------|---------------4-|-5-7-5-4-5-7---5-|-7-5-4-------4-5-|
|---------6-5-4-5-|-7-5-4-5-6-7-8---|-----------------|-------7-5-7-----|
|-----------------|-----------------|-----------------|-----------------|
|-----------------|-----------------|-----------------|-----------------|


  E E E E E E E E   E E E E E E E E   E E E E E E E E   E E E E E E E E
|-----------------|-----------------|-------------5---|-----------------|
|---5-6-5-8-6-5---|-5-6-5-------5-6-|-8-6-5-----5---8-|-6-5---------8-6-|
|-7-------------7-|-------7-5-7-----|-------7-6-------|-----7-5-4-7-----|
|-----------------|-----------------|-----------------|-----------------|
|-----------------|-----------------|-----------------|-----------------|
|-----------------|-----------------|-----------------|-----------------|


  E E E E E E E E   E E E E E E E E   E E E E E E E E   E E E E E E E E
|-----------------|-----------------|-----------------|-----------------|
|-5-----------5---|-----------------|-------------5---|-----------------|
|---7-5-4---7---7-|-5-4-----------4-|-5-7-5-4-5-7---5-|-7-5-4-------4-5-|
|---------7-------|-----7-5-4-5-7---|-----------------|-------7-5-7-----|
|-----------------|-----------------|-----------------|-----------------|
|-----------------|-----------------|-----------------|-----------------|


  E E E E E E E E   E E E E E E E E   E E E E E E E E   E E E E E E E E
|-----------------|-----------6-5---|-----------5-----|-----------------|
|---5-6-5-8-6-5---|---8-5---------8-|-6-5---------8-6-|-5---------8-6-5-|
|-7-------------7-|-5-----7-6-------|-----7-5-4-------|---7-5-4---------|
|-----------------|-----------------|-----------------|---------7-------|
|-----------------|-----------------|-----------------|-----------------|
|-----------------|-----------------|-----------------|-----------------|


  E E E E E E E E   E E E E E E E E   E E E E E E E E   E E E E E E E E
|-----------------|-----------------|-----------------|-----------------|
|-----------6-5---|-----------5-----|-------------5-6-|-6-5-------------|
|-7-5-4---------7-|-5-4---------7-5-|-4-----4-5-7-----|-----7-5---------|
|-------7-6-------|-----7-5-4-------|---5-7-----------|---------6-7-----|
|-----------------|-----------------|-----------------|-------------8-5-|
|-----------------|-----------------|-----------------|-----------------|


  E E E E E E E E   E E E E E E E E   E E E E E E E E   E E E E E E E E
|-----------------|-----------------|-----------------|-------8-7-------|
|-----------------|-----------------|---------------8-|---5-8-----8-6---|
|-----------------|-------5-4-------|-------5---4-7---|-5-------------7-|
|-7-5-----5-------|-----5-----5-----|-----5---5-------|-----------------|
|-----7-----8-5---|---7---------8-5-|---7-------------|-----------------|
|-------8-------7-|-8---------------|-8---------------|-----------------|


  E E E E  E  E  E  E   E E E E E E E E
|-------8-------10-15-|-----------------|
|---5-8------12-------|-----------------|
|-5-------12----------|---------------4-|
|---------------------|-----------5-7---|
|---------------------|-----5-7-8-------|
|---------------------|-8-8-------------|


  E E E E E E E E    E  E  E  E  E  E  E  E
|-------------5-7-|-------------------17-19-|
|-------5-6-8-----|----------17-18-20-------|
|-5-5-7-----------|-17-17-19----------------|
|-----------------|-------------------------|
|-----------------|-------------------------|
|-----------------|-------------------------|


   E  E  E  E  E  E  E  E   E E E E E E E E
|-20-20-19-17-------------|-8-8-7-5---------|
|-------------20-18-17----|---------8-6-5---|
|----------------------19-|---------------7-|
|-------------------------|-----------------|
|-------------------------|-----------------|
|-------------------------|-----------------|


  E E E E E E E E   Q H.    Q H.   Q H.
|-----------------|------|-12----|------*|
|-----------------|------|-------|------*|
|-5-5-4-----------|------|-12----|------*|
|-------7-5-------|------|-------|------*|
|-----------8-7-5-|------|-------|------*|
|-----------------|-8----|-------|-8----*|


Duration Legend
---------------
W - whole; H - half; Q - quarter; E - 8th; S - 16th; T - 32nd; X - 64th; 
a - acciaccatura
+ - note tied to previous; . - note dotted; .. - note double dotted
Uncapitalized letters represent notes that are staccato (1/2 duration)
Irregular groupings are notated above the duration line
Duration letters will always appear directly above the note/fret number 
it represents the duration for.  Duration letters with no fret number below 
them represent rests.  Multi-bar rests are notated in the form Wxn, where n 
is the number of bars to rest for.Low melody durations appear below the staff

Tablature Legend
----------------
 h   - hammer-on
 p   - pull-off
 b   - bend
 pb  - pre-bend
 r   - bend release (if no number after the r, then release immediately)
 /\  - slide into or out of (from/to "nowhere")
 s   - legato slide
 S   - shift slide
  - natural harmonic
[n]  - artificial harmonic
n(n) - tapped harmonic
 ~   - vibrato
 tr  - trill
 T   - tap
 TP  - trem. picking
 PM  - palm muting
\n/  - tremolo bar dip; n = amount to dip
 \n  - tremolo bar down
 n/  - tremolo bar up
/n\  - tremolo bar inverted dip
 =   - hold bend; also acts as connecting device for hammers/pulls
 <>  - volume swell (louder/softer)
 x   - on rhythm slash represents muted slash
 o   - on rhythm slash represents single note slash

Misc Legend
-----------
 |  - bar
||  - double bar
||o - repeat start
o|| - repeat end
*|  - double bar (ending)
 :  - bar (freetime)
 $  - Segno
 &  - Coda
Tempo markers -  = BPM(8/16=s8/s16), where s8 = swing 8ths, s16 = swing 16ths