Bulevar - Trenutni Lek

Transkripcija: oo7 denis041@gmail.com



SOLO:
e----------------------------------------------------------------------------|
h-12-11----------12-11-----------------------11-----------------11-12--------|
g-------13-11----------13-11-----------11-13--------------11-13-------13-----|
d-------------13-------------13-13--13----------13--11-13--------------------|
a----------------------------------------------------------------------------|
E----------------------------------------------------------------------------|

e------------------------------------------------------------------------------||
h-12-11----------12-11----------11-------------10-11----------------11-12-----*||
g-------13-11----------13-11-------------11-13----------------11-13-------13---||
d-------------13-------------13----13-13-------------13-11-13------------------||
a-----------------------------------------------------------------------------*||
E------------------------------------------------------------------------------||