Busmani - Mislio Sam Da Je Zivot

Transkripcija: Djolle
Album        : Busmani (2001)


Intro 4x

A5		 E5			    A5
Mislio sam da je zivot dve, tri case rujnog vina
F5	       E5             A5
vrisak zena sa kolena i jecaj violina.
A5		 E5                     A5
Proveo sam mnoge dane, mnoge noci nisam spavao
F5	         E5  	 	    A5
zenama sam zivot dao, a kafana mati bila.

A5   D5		      A5
Adio mare, adio bella Napoli,
C5        E5(VII)        A5
adio sole mio, adio moja ljubavi. 
     D5	              A5
Adio mare, adio bella Napoli,
C5        E5(VII)        A5
adio sole mio, adio moja ljubavi. 

Solo
Intro 2x

Sada moja kuca truli, ne tisti me zato jad
zenama sam zivot dao i ostacu uvek mlad.
Mislio sam da je zivot dve, tri case rujnog vina
vrisak zena sa kolena i jecaj violina.

Adio mare, adio bella Napoli,	  
adio sole mio, adio moja ljubavi. 
Adio mare, adio bella Napoli,
adio sole mio, adio moja ljubavi. 2x

solo
ref 2x
solo(prvi deo 2x)
kraj. 


Intro
e--5-------------5--------------
h--5-------------5--------------
g--5---4--5------5--4-5--7------
d--7-------------7--------------
a--7-------------7--------------
e--5-------------5--------------

Solo
   A5      D5                    A5       C5                   E5		   A5
e-----------------------------------------------------------------------------------
h-----------------------------------------------------------------------------------
g--9-10-9--7--7---7-7-7--7h9-7---7--------------------------------------------------
d----------------------------------10-10---10-10-10--10h12-10--9--9-9-9--9h10--9---7
a-----------------------------------------------------------------------------------
e-----------------------------------------------------------------------------------
   A5      D5                    A5       C5                 E5                A5
e-----------------------------------------------------------------------------------
h-----------------------------------------------------------------------------------
g-----------------------------------------------------------------------------------
d-----------------------------------------------------------------------------------
a--7-8-7---5--5---5-5-5--5h7-5---5--------------------------------------------------
e-----------------------------------8-8----8-8-8---8h10--8--7--7-7-7---7h8--7---5---