Crvena Jabuka - Ako Ako

Transkripcija: Igor Maric (razlomak@hotmail.com)


Lick:  F#  F#  G  A  G  E

F#m         E  Hm         F#m          E          F#m
Kad bi otisla, sama bi se preko Bosne, brzim vratila

F#m                    E
Meni i tebi srce isto udara
F#m                           E
sve tvoje zelje citam ti u ocima
Hm              F#m
moja si i to znaju svi
Hm                    F#m
sto su te potajno zeljeli
Hm                    F#m
a ja vec godinama cuvam te
          E                C#
i zato ne bojim se s tobom mogu sve

F#m                               Hm
Ako ako odes ti ja te necu traziti
                       F#m
od Vardara moja raja do Triglava nema kraja
E                                        F#m
gdje bi se od oka gdje bi se od srca sakrila

    Hm        F#m         E          F#m
...sama bi se preko Bosne brzim vratila..

Solo:
-|--------------------------------------------------------------------
-|-----------------------------------6--7----7-7-7-9-7-6-7------------
-|---------------------------4---6-7---------x-x-x-x-x-x--------------
-|-----------3-4---6-7---6-4------------------------------------------
-|-2----4-5-----------------------------------------------------------
-|--------------------------------------------------------------------

-|----------------------------------------------------------10-11-(4x)
-|--------------------------------------------------------------------
-|--------------------------4---6-7---6-4---6-7-6-7-6-7-6-7-----------
-|----------3-4---6-7---6-4-------------------------------------------
-|-2----4-5-----------------------------------------------------------
-|--------------------------------------------------------------------