Crvena Jabuka - Bjezi Kiso S Prozora

Transkripcija: ????
Poslao       : Marko (lade@bendroz.ca)
Home         : The book of home


G    D    G       
Pada kisa napolju.
G      D        G
Kaplje mi po prozoru.   
C        D
a ja sama kod kuce 
G      D/F#   Em
sjedim placem tugujem 
C            D
ne znam sta cu
G    
od sebe.

Bjezi kiso s prozora,
Bjezi kiso s prozora,
Bjezi kiso s prozora,
da te nije, sad bi ja
svoga dragog ljubila.

Bjezi kiso s prozora,
da te nije sad bih ja
svoga dragog ljubila.

Kisa joj govorila,
Kisa joj govorila,
Sjedi curo kod kuce,
Jer on nije za tebe
On je sada kod druge

Sjedi curo kod kuce,
Jer on nije za tebe,
On je sada kod druge.

Ti si kiso lazljiva.
Ti si kiso lazljiva.
Mene dragi ne vara,
Ja sam njemu najdraza,
Bjezi kiso s prozora,

Mene dragi ne vara,
Ja sam njemu najdraza,
Bjezi kiso s prozora.


***VERZIJA 2***
 G      D      G
Pada kisa napolju,
G         D       G
Kaplje mi po prozoru,
C        D
A ja sam kod kuce,
D7      G      Em
Sjedim, placem tugujem,
Em      C      D    G
Ne znam sto cu od sebe!  
 
  
***VERZIJA 3***
Transkripcija: Miralem  (mi-batla@online.no)

SOLO:
E|-----------------------------------
B|-----8-5-8-5--7/8-7-5--------------
G|---7------------------7-5/4--------
D|-5--------------------------7-5----
A|-----------------------------------
E|-----------------------------------

Ovo se ponovi dva puta a ima i drugi solo koji je malo komplikovaniji od 
ovoga u nastavku pjesme mada ni to nije bauk

Pozdrav Miralem


***VERZIJA 4***
Transkripcija: Adi [adiazrael@hotmail.com]

E|-------------------------------------------------------------------
B|--5--7--8~--5^7^5~--5-7-8-7-5----------5--7--8~--5^7^5~--5-7-8-7-5-
G|------------------------------7-5-4--------------------------------
D|------------------------------------7------------------------------
A|-------------------------------------------------------------------
E|-------------------------------------------------------------------

---------------------------------------------------------------------
---------------------------------------------------------------------
--7-5-4--------------------------------------------------------------
--------7-5~~~~------------------------------------------------------
---------------------------------------------------------------------
---------------------------------------------------------------------

P.s. Ako neko ima uvod od ove pjesme naka mi ga posalje. Znam da je nesto 
na G I D akordu na 10-om pragu ali nemogu da ga skinem u originalu. 
Unaprijed hvala. Komantari I sugestije su dobro dosle.


***VERZIJA 5***
Transkripcija: Dragan Lesic - truplic@gmail.com


I. GITARA - UVOD:
-------10----10|-------10------10|-------10-----10|-------10------10|
---------12----|---------12------|---------12-----|---------12------|
-12--------12--|-12-------12-----|--12--------11--|-12-------12-----|
---------------|-----------------|----------------|-----------------|
---------------|-----------------|----------------|-----------------|
---------------|-----------------|----------------|-----------------|

-------10----10|-------10------10|-------12-------|-------14--------|
---------12----|---------12------|----------13----|---------15------|
-12--------11--|-12---------10---|--12------------|-14--------------|
---------------|-----------------|----------------|-----------------|
---------------|-----------------|----------------|-----------------|
---------------|-----------------|----------------|-----------------|

-------10------|-------7---------|-------12-------|-14--------------|
---------------|---------8-------|---------13-----|-15--------------|
-12--------11--|-9---------------|--12------------|-14--------------|
---------------|-----------------|----------------|-----------------|
---------------|-----------------|----------------|-----------------|
---------------|-----------------|----------------|-----------------|

II. GITARA - UVOD:
G
--------2-----2|
------2---2----|
----0----------|
---------------|
---------------|
-3---------3---|...

svira se  po akordima G - D - G ...

drugi dio uvoda za I. gitaru je jos malo kompliciraniji pa
Slobodno korektirajte.