Crvena Jabuka - Da Mi Je Do Nje

Transkripcija: Jelenkovic Ivan (ivanimiljan@ptt.yu)


F#m
Prosao sam ljudi kazu mnogo
                      E
Ma kakva pamet ludost cista
                  Hm 
Naucit toliko sam mog'o
       C#             F#m 
al tek sad ja ne znam nista

Probao sam rajsko voce
I pune cepove para
Al' malo ko da hoce
Slusat tugu sanjara

                A       E
Al' da mi je do nje, do nje
Hm                F#m
Jos dok je mila i snena
               A       E
Ja pamtim samo hej, od sveg
C#               F#m
Pogled sa njenih ramena

Putovao sam mnogo
Zvijezde, sunca dale put
Te sto dale su je drugom
I na njih bio sam ljut

Al' vidjeh je vidjeh sve
Ma kakva pamet ludost teska
Al' ne postoji nista
Lepse od njenog smeska

***VERZIJA 2***
Transkripcija: sasayu1983@yahoo.com

Key: F#m

Glavna tema:
============


*  10b10.5 znaci bend up za 1/4 tona (ko razume shvatice)
   r - je normalno release 
   v - vibrato

e|-------------------------------|---------------12------------v9----|
h|---------9-10-9-12-10b10.5r10v-|-------9-10-12----10b10.5r10-------|
g|------11-----------------------|----11-----------------------------|
D|---11--------------------------|--11-------------------------------|
A|-------------------------------|-----------------------------------|
E|-------------------------------|-----------------------------------|

e|----9--7--10---9---------------------------------------------------|
h|---10--9--12-----10------------------------------------------------|
g|--------------------9b11-(slow bend up)----------------------------|
D|-------------------------------------------------------------------|
A|-------------------------------------------------------------------|
E|-------------------------------------------------------------------|

e|-------------------------------|---------------12------------v9----|
h|---------9-10-9-12-10b10.5r10v-|-------9-10-12----10b10.5r10-------|
g|------11-----------------------|----11-----------------------------|
D|---11--------------------------|--11-------------------------------|
A|-------------------------------|-----------------------------------|
E|-------------------------------|-----------------------------------|

e|----9--7--10----13p9-13p9-----------------------------------------||
h|---10--9--12------------------------------------------------------||
g|--------------------------9b11-(slow bend up)---------------------||
D|------------------------------------------------------------------||
A|------------------------------------------------------------------||
E|------------------------------------------------------------------||

Pratnja:
========
Strofa: F#m E Hm C# F#m
Refren: A E Hm F#m
        A E C# F#m

P.S. Sve pohvale onome ko je poslao akorde za ovu pesmu,najzad neko
ko se razume i ne salje ovde svakakvo djubre!Pozdrav!