Crvena Jabuka - Da Znas Da Me Bolis

Transkripcija: Matej Ostir (matej.ostir@siol.net)
Home         : http://2akordi.net


D
Ispisacu poneku rijec i za tebe
         G             D
vijekova mir vracas mi ti

smirujes vode nabujale
    G                  D
moj sapat i krik ces pomiriti

         A                   G
pijem ti dah kao lijek svaku noc
             D
prije no sto usnim ja
      A                    G
i taj tren i zauvijek samo ti
           D
ti si mi u mislima

           G
i kad nisi tu kraj mene

da znas da me bolis
   D
i nocas ja cu da te cuvam dok spavas
   A
i ljubim tamo gdje najvise volis
    D
dok sanjas

hodao sam ja bos po ostrici
kamen samoce zivot mi je gradio
i stalno cekas lopova da karte otvori
hiljadu puta dosad me uvalio
ljubim ti oci ko u bunilu
svaku noc prije nego usnim ja
ti si izvjesnost u ovom ludilu
i jedino sunce sto mi sja.

i kad nisi tu kraj mene
da znas da me bolis
i nocas ja cu da te cuvam dok spavas
i ljubim tamo gdje najvise volis
dok sanjas

***VERZIJA 2***
Transkripcija: Beeman


   :--------------2-------------3--2----
   :--------3---------3-----3---------3-
   :----2------2---------2--------------
   :-0----------------------------------
   :------------------------------------
   :------------------------------------
     Ispisat cu po neku rijec i za tebe

   :-----------------3-----------------2-------
   :-------------3------3---3-----3------3---3-
   :-4-2-0-----0---0------0-----2---2------2---
   :--------------------------0----------------
   :-------------------------------------------
   :---------3---------------------------------
     Vjekova mir     vracas mi ti

   :--------2------3h2---------------------3---------------2------------------0-
   :-----3----3--------3----------------3----3---3------3-----3----3-----2------
   :---2---2----2--------4-2----------0---0----0------2---2------2-----2---2----
   :-0----------------------------------------------0---------------------------
   :-----------------------------------------------------------------0----------
   :-------------------------------3--------------------------------------------
     Smirujes vode nabu jale   moj sapat i krik ces pomiriti pijem ti dah kao rijec

   :--------3--------------3-3-2---------2-------
   :-2---2--3--------------------3-----3---3---3-
   :---2----0------------------------2---2---2---
   :---------------------------------------------
   :---------------------------------------------
   :--------3------------------------------------
     svaku  noc prije no sto usnim ja        i taj

   :--------0--------------3-------------3-3-2---------2--------
   :-----2-----2----2------3-------------------3----3----3---3--
   :---2---2-----2---------0----------------------2---2----2----
   :------------------------------------------------------------
   :-0----------------------------------------------------------
   :-----------------------3------------------------------------
     tren i zauvijek i samo ti, ti si mi u mislima

*Ovo nije 100% tocno ali bolje od ovaoga ne mogu.
Bitno je da u pozadini druga gitara svira pune akorde jer bolje zvuci.